rock
 
|tablatures   |lyrics   |discussion forums   |more tabs @ XGuitar.com

Creedence Clearwater Revival tabs

Ramble Tamble guitar tab

Date: Wed, 22 Aug 2001 22:30:35 -0700 (PDT)
From: Justin Moon 
Subject: c/creedence_clearwater_revival/ramble_tamble.tab

                               Ramble Tamble
                        Credence clearwater revival
                             Rough tab just the basic stuff. By Justin
Moon


    Fig 1                         8x

E---------------------------------||---------------------------------------
B---------------------------------||---------------------------------------
G--------------------------5--4--*||---------------------------------------
D-----------------3--3-----------*||---------------------------------------
A---5--5--3h5--5--------5---------||---------------------------------------
E---------------------------------||---------------------------------------









    Fig 2 (with 4-8 times of Fig. 1)

E------------------------------------------|-------------------------------
B------3-----3-----------------------------|-------------------------------
G------2-----2-----------------------------|-------------------------------
D------------------------------------------|-------------------------------
A------------------------------------------|-------------------------------
E------------------------------------------|-------------------------------









    Fig 3                                                          4x

E------------------------------------------------------------------||------
B---7--x--5--x--3--x--3--x--0--3--3/7--x--5--x--3--3--3--3--3------||------
G---7--x--4--x--2--x--2--x--0--2----7--x--4--x--2--2--2--2--2-----*||------
D-----------------------------------------------------------------*||------
A------------------------------------------------------------------||------
E------------------------------------------------------------------||------









                               Verse

E--------------------------------------------------------------------------
B--------------------------------------------------------------------------
G---------------------------------7-----7-----7-----7-----7-----7-----7----
D---------------------------------7-----7-----7-----7-----7-----7-----7----
A------------------------------5-----5-----5-----5-----5-----5-----5-------
E--------------------------------------------------------------------------



              back to fig 3        gradually slows down      4x

E---------||-------------------------------------------------||------------
B---------||-------------------------------------------------||------------
G------7--||-------------------------10--x--10--7--x--7--7--*||------------
D------7--||-----------------------7/10--x--10--7--x--7--7--*||------------
A---5-----||-------------------------------------------------||------------
E---------||-------------------------------------------------||------------







    Long Bridge

E---------------0--------------------------------------------2--------3----
B------------1-----1-----------------1--------3-----------3-----3----------
G---------2-----------------------0--------------0-----2-----------2-------
D------2-----------------------2-----------0--------0----------------------
A---0-----------------0--2--3-----------2----------------------------------
E--------------------------------------------------------------------------





E---------2-----------------------0----------------------------------------
B---3--------3-----------------1-----1-----------------1--------3----------
G------2--------------------2-----------------------0--------------0-------
D------------------2-----2-----------------------2-----------0--------0----
A---------------0-----0-----------------0--2--3-----------2----------------
E--------------------------------------------------------------------------





E---------2--------3---------||--------------------------------------------
B------3-----3--------3------||--------------------------------------------
G---2-----------2--------2--*||--------------------------------------------
D---------------------------*||--------------------------------------------
A----------------------------||--------------------------------------------
E----------------------------||--------------------------------------------


                      bridge turns into strumming (same chrds



             Tab by Justin Moon


                                           Bluezman799@yahoo.com


       All my own tab intended for scholarship

===========================================================================
==                         TABLATURE EXPLANATION
==
===========================================================================

----------                ----------                ----t---
----5h8--- Hammeron       ----(8)--- Ghost          ----6--- Tap
----------                ---------- Note           --------
----5p8--- Pulloff        ----------                --------

----------                ----------                -----p--
----5/8--- Slide Up       -----x---- Dead           -----7-- Pop
----------                ---------- Note           --s-----
----5\8--- Slide Down     ----------                --5----- Slap

----------                ||------|| Repeat         --------
----5~~~-- Vibrato        ||*----*||                ---5^--- Bend
----------                ||*----*||                --------
----------                ||------||                --------

----------                ----------                --------
-4:------- Time           ----------                --------
-4:------- Signature      ----------                --------
----------                ----------                --------

Rhythm:
  w = whole note            W = dotted whole
  h = half note             H = dotted half
  q = quarter note          Q = dotted quarter
  e = eighth note           E = dotted eighth
  s = sixteenth note        S = dotted sixteenth
  t = 32nd note             T = dotted 32nd
  x = 64th note             X = dotted 64th
  ^ = triplet

===========================================================================
==                Created with BUCKET O' TAB for Windows
==
==                    For more info email gse@his.com
==
===========================================================================
  development and support by
dmitry ivanov