rock
 
|tablatures   |lyrics   |discussion forums   |more tabs @ XGuitar.com

Creedence Clearwater Revival tabs

Molina bass tab

-=Molina=-
-=Creedence Clearwater Revival=-
-=Tabbed By Giom gui.braize@caramail.com=-

Chorus:
Riff 1:

G--------------
D----66-77-99--
A-77-----------x4
E--------------

Riff 2:

G-6-6--6--4-4----
D-----6-6-----4--
A----------------
E----------------

G------------------------------
D----66-77-99------66-77-99-.--
A-77------------77----------7--
E------------------------------

Verse:
Riff 3:

G--------------------
D---.------.---------
A-.-7----.-7------7--
E-5------5------5----

Sax solo :

G--------------   G----88-99-11-11----66-77-99--
D----66-77-99--   D-99-------------77-----------
A-77-----------x4 A-----------------------------
E--------------   E-----------------------------

G--------------   G----88-99-11-11----66-77-99--
D----66-77-99--   D-99-------------77-----------
A-77-----------x6 A-----------------------------
E--------------   E-----------------------------

G------------------------------
D----66-77-99------66-77-99-.--
A-77------------77----------7--
E------------------------------

End:

G--------------
D----66-77-99--
A-77----------- fade out
E--------------

Song structure :
Chorus
Verse
Chorus
Verse
Sax solo
Chorus
Verse
Chorus x2
End
  development and support by
dmitry ivanov