rock
 
|tablatures   |lyrics   |discussion forums   |more tabs @ XGuitar.com

Creedence Clearwater Revival tabs

Lodi guitar tab

Original postings:
From: Paul Zimmerman  and 
From: toni 
modified by raggen@hem1.passagen.se

Song:   Lodi
Artist: Creedende Clearwater Revival
CD:     Chronicle
Tabber:Roger Olofsson (raggen@hem1.passagen.se)


LODI
Creedence Clearwater


Basic rhythm pattern:  x means mute strings

    D   U   D   U  continue
E---1---1---1---x--------------------|-----------------------------------|
B---3---3---3---x--------------------|-----------------------------------|
G---3---3---3---x--------------------|-----------------------------------|
D---3---3---3---x--------------------|-----------------------------------|
A---1---1---1---x--------------------|-----------------------------------|
e---x---x---x---x--------------------|-----------------------------------|

Intro: C C C C F F C C

E------------------------------------|-----------------------------------|
B--3--3--4--4/6--6--6----------------|--3--4--4--4----4---3--------------|
G--3--3--5--5/7--7--7----------------|--3--5--5--5r3--3---3--------------|
D------------------------------------|------------------------3-5-3---3--|
A------------------------------------|----------------------5-------5----|
e------------------------------------|-----------------------------------|

Bb
Just about a year ago
  Eb             Bb
I set out on the road,
Bb         Bb/A     Gm
seekin' my fame and fortune,
Eb                   F
lookin' for a pot of gold.
Bb         Bb/A    Gm         Bb/F
Things got bad and things got worse,
  Eb                      Bb
I guess you will know the tune -

         F                Eb    (2) Bb
Oh Lord, stuck in on Lodi up again

Riff here goes

E------------------------------------|-----------------------------------|
B------------------------------------|-----------------------------------|
G-------3--5--5b6---6r5r3----3-------|-----------------------------------|
D---3h5-------------------5----------|------3--5--3----3-----------------|
A------------------------------------|---5----------5--------------------|
e------------------------------------|-----------------------------------|


I rode in on a Greyhound,
I'll be walkin' out if I go
I was just passin' through
Must be seven months or more
Ran out of time and money
Looks like they took my friends
Oh, Lord, stuck in on Lodi up again

E------------------------------------|-----------------------------------|
B------------------------------------|-----------------------------------|
G-------3--5--5b6---6r5r3----3-------|-----------------------------------|
D---3h5-------------------5----------|------3--5--3----3-----------------|
A------------------------------------|---5----------5--------------------|
e------------------------------------|-----------------------------------|

Small variation of intro here:

E------------------------------------|-----------------------------------|
B--3--3--4--4/6--6--6----------------|--3--4--4h6-4----------------------|
G--3--3--5--5/7--7--7----------------|--3--5--5---5---5---3--------------|
D------------------------------------|----------------5---3---3-5-3----3-|
A------------------------------------|----------------------5-------5----|
e------------------------------------|-----------------------------------|

Intro follows again:

E------------------------------------|-----------------------------------|
B--3--3--4--4/6--6--6----------------|--3--4--4--4----4---3--------------|
G--3--3--5--5/7--7--7----------------|--3--5--5--5r3--3---3--------------|
D------------------------------------|------------------------3-5-3---3--|
A------------------------------------|----------------------5-------5----|
e------------------------------------|-----------------------------------|

The man from the magazine
Said I was on my way
Somewhere I lost connection
Ran out of songs to play
I came into town on a one-night stand
Looks like my plans fell through
Oh, Lord, stuck in Lodi again

E------------------------------------|-----------------------------------|
B------------------------------------|-----------------------------------|
G-------3--5--5b6---6r5r3----3-------|-----------------------------------|
D---3h5-------------------5----------|-----------------------------------|
A------------------------------------|-----------------------------------|
e------------------------------------|-----------------------------------|

E------------------------------------|-----------------------------------|
B---------1-h3r1---------------------|-----------------------------------|
G---2-h3--2------2---0----1--0----1--|-----------------------------------|
D---3------------3---0-h2-0--0-h2-0--|-----------------------------------|
A------------------------------------|--5-h-7--5---5-h-7--5--------------|
e------------------------------------|--3------3---3------3--------------|
                                                             to C chord
C
If I only had a dollar
    F               C
For every song I've sung
                    Am
And every time I've had to play
      F                G
While people sat there drunk
    C                  Am
You know I'd catch the next train
F               C
Back to where I live
C         G                F
Oh, Lord, stuck in on Lodi up again

E------------------------------------|-----------------------------------|
B------------------------------------|-----------------------------------|
G-------5--7--7b8---8r7r5----5-------|-----------------------------------|
D---5h7-------------------7----------|---------7--5----5-----------------|
A------------------------------------|--------------7--------------------|
e------------------------------------|-----------------------------------|

C         G                F
Oh, Lord, Stuck in on Lodi up again

E------------------------------------|-----------------------------------|
B------------------------------------|-----------------------------------|
G-------5--7--7b8---8r7r5----5-------|-----------------------------------|
D---5h7-------------------7----------|---------7--5----5-----------------|
A------------------------------------|--------------7--------------------|
e------------------------------------|-----------------------------------|

Small variation again:

E------------------------------------|-----------------------------------|
B--5--5--6--6/8--8--8----------------|--5--6--6h8-6----------------------|
G--5--5--7--7/9--9--9----------------|--5--7--7---7---7---5--------------|
D------------------------------------|----------------7---5---5-7-5----5-|
A------------------------------------|----------------------7-------7----|
e------------------------------------|-----------------------------------|

Intro follows again:

B------------------------------------|-----------------------------------|
G--5--5--6--6/8--8--8----------------|--5--6--6--6----6---5--------------|
D--5--5--7--7/9--9--9----------------|--5--7--7--7r5--5---5--------------|
A------------------------------------|------------------------5-7-5----5-|
e------------------------------------|----------------------7-------7----|
E------------------------------------|-----------------------------------|

Peace, love, and soul,
Paul Zimmerman
Yeah! Roger Olofsson
-- 

raggen@hem1.passagen.se, Roger Olofsson
  development and support by
dmitry ivanov