rock
 
|tablatures   |lyrics   |discussion forums   |more tabs @ XGuitar.com

Creedence Clearwater Revival tabs

Lodi bass tab

TablEdited by Jan Bjorklund
Tuning : E A D G 	Time Signature: 4/4

 tempo 126       |       |        |       |       |       |
|3-----------3-------------------|3-----------3-------------------|
|----------------3---------------|----------------3---------------|
|--------------------------------|--------------------------------|
|--------------------------------|--------------------------------|

 |       |       |       |        |       |       |       |
|--------------------------------|----------------0---------------|
|3-----------3---1-----------1---|------------0-------3---0---3---|
|--------------------------------|1-------------------------------|
|--------------------------------|--------------------------------|

 Just about a year a-    |        | go ...|       |       |
|3-----------3-------------------|3-----------3-------------------|
|----------------3---------------|----------------3---------------|
|--------------------------------|--------------------------------|
|--------------------------------|--------------------------------|


 |       |       |       |        |       |       |       |
|--------------------------------|3-----------3-------------------|
|1-----------1-------------------|----------------3---------------|
|----------------1---------------|--------------------------------|
|--------------------------------|--------------------------------|

 |       |       |       |        |       |       |       |
|3-----------3---2---------------|0-----------0-------------------|
|--------------------------------|----------------3---------------|
|--------------------------------|--------------------------------|
|--------------------------------|--------------------------------|

 |       |       |       |        |       |       |       |
|--------------------------------|--------------------------------|
|1-----------1---1---------------|3-----------3---3---------------|
|--------------------------------|--------------------------------|
|--------------------------------|--------------------------------|

 Things got bad, and     |        things got worse,...    |
|3-----------3---2---------------|0-----------0-------------------|
|--------------------------------|----------------3---------------|
|--------------------------------|--------------------------------|
|--------------------------------|--------------------------------|

 |       |       |       |        |       |       |       |
|--------------------------------|--------------------------------|
|1-----------1---1---------------|------------------------0---3---|
|--------------------------------|1-----------1---1---1-----------|
|--------------------------------|--------------------------------|

 Oh ! lord,      |       |        stuck in|...    |       |
|3-----------3-------------------|--------------------------------|
|----------------3-------3-------|3-----------3-------------------|
|--------------------------------|----------------3-------3-------|
|--------------------------------|--------------------------------|

 |       |       |       |        |       |       |       |
|--------------------------------|--------------------------------|
|1-----------1-------------------|------------------------0---3---|
|----------------1-------1-------|1-----------1---1---1-----------|
|--------------------------------|--------------------------------|

 Rode in on the  |       |        greyhound,      |       I^Òll be
|3-----------3-------------------|3-----------3-------------------|
|----------------3---------------|----------------3-------3-------|
|--------------------------------|--------------------------------|
|--------------------------------|--------------------------------|

 | walkin^Ò out if|I      |        go.....(and so on)      |
|--------------------------------|3-----------3-------------------|
|1-----------1-------------------|----------------3---------------|
|----------------1---------------|--------------------------------|
|--------------------------------|--------------------------------|

 |       |       |       |        |       |       |       |
|3-----------3---2---------------|0-----------0-------------------|
|--------------------------------|----------------3---------------|
|--------------------------------|--------------------------------|
|--------------------------------|--------------------------------|

 |       |       |       |        |       |       |       |
|--------------------------------|--------------------------------|
|1-----------1---1---------------|3-----------3---3---3-------3---|
|--------------------------------|--------------------------------|
|--------------------------------|--------------------------------|

 |       |       |       |        |       |       |       |
|3-----------3---2---------------|0-----------0-------------------|
|--------------------------------|----------------3---------------|
|--------------------------------|--------------------------------|
|--------------------------------|--------------------------------|

 |       |       |       |        |       |       |       |
|--------------------------------|--------------------------------|
|1-----------1---1---1---1-------|------------------------0---3---|
|--------------------------------|1-----------1---1---1-----------|
|--------------------------------|--------------------------------|

 Oh ! lord,      |       |        stuck in|lodi a-|       |
|3-----------3-------------------|--------------------------------|
|----------------3---------------|3-----------3-------------------|
|--------------------------------|----------------3---------------|
|--------------------------------|--------------------------------|

 gain    |       |       |        |       |       |       |
|--------------------------------|--------------------------------|
|1-----------1-------------------|------------------------0---3---|
|----------------1-------1-------|1-----------1---1---1-----------|
|--------------------------------|--------------------------------|

 Guitar "S O L O"|       |        |       |       |       |
|3-----------3-------------------|3-----------3-------------------|
|----------------3-------3-------|----------------3---------------|
|--------------------------------|--------------------------------|
|--------------------------------|--------------------------------|

 |       |       |       |        |       |       |       |
|--------------------------------|3---------------3---3-----------|
|1-----------1-------------------|------------------------0---3---|
|----------------1-------1-------|--------------------------------|
|--------------------------------|--------------------------------|

 |       |       |       |        |       |       |       |
|3-----------3-------------------|3-----------3-------------------|
|----------------3---3---3-------|----------------3---------------|
|--------------------------------|--------------------------------|
|--------------------------------|--------------------------------|

 |       |       |       |        |       |       |       The
|--------------------------------|--------------------------------|
|3-----------3---1-----------1---|------------------------0---3---|
|--------------------------------|1-----------1---1---1-----------|
|--------------------------------|--------------------------------|

 man from|the maga-      |        zine    |       |       |
|3-----------3-------------------|3-----------3-------------------|
|----------------3-------3-------|----------------3---------------|
|--------------------------------|--------------------------------|
|--------------------------------|--------------------------------|

 said I was on my|way ...|        |       |       |       |
|--------------------------------|3-----------3-------------------|
|1-----------1-------------------|----------------3---------------|
|----------------1-------1-------|--------------------------------|
|--------------------------------|--------------------------------|

 |       |       |       |        |       |       |       |
|3-----------3---2-------2-------|0-----------0-------------------|
|--------------------------------|----------------3-------3-------|
|--------------------------------|--------------------------------|
|--------------------------------|--------------------------------|

 |       |       |       |        |       |       |       |
|--------------------------------|--------------------------------|
|1-----------1---1-------1-------|3-----------3---3-------3---3---|
|--------------------------------|--------------------------------|
|--------------------------------|--------------------------------|

 |       |       |       |        |       |       |       |
|3-----------3---2---------------|0-----------0-------------------|
|--------------------------------|----------------3---------------|
|--------------------------------|--------------------------------|
|--------------------------------|--------------------------------|

 |       |       |       |        |       |       |       |
|--------------------------------|--------------------------------|
|1-----------1---1-------1-------|------------------------0---3---|
|--------------------------------|1-----------1---1---1-----------|
|--------------------------------|--------------------------------|

 Oh ! lord,      |       |        stuck in|lodi a-|       |
|3-----------3-------------------|--------------------------------|
|----------------3-------3-------|3-----------3-------------------|
|--------------------------------|----------------3---------------|
|--------------------------------|--------------------------------|

 gain    |       |       |        |       |       |       |
|--------------------------------|--------------------------------|
|1-----------1-------------------|--------------------------------|
|----------------1---------------|1-----------1---1---------------|
|--------------------------------|--------------------------------|

 (T R A N|S P O S|I N G) |        |       |       |       |
|--------------------------------|--------------------------------|
|3---------------3---------------|--------------------------------|
|--------------------------------|3---------------3---------------|
|--------------------------------|--------------------------------|

 |       |       |       |        |       |       |       |
|--------------------------------|--------------------------------|
|--------------------------------|--------------------------------|
|--------------------------------|3-----------3-------------------|
|3---------------3---------------|----------------3---------------|

 |       |       |       |        If I only had a |       |
|--------------------------------|--------------------------------|
|--------------------------------|--------------------------------|
|3-----------3-------------------|3-----------3-------------------|
|----------------3---------------|----------------3-------3-------|

 dollar...       |       |        |       |       |       |
|--------------------------------|--------------------------------|
|------------------------2-------|3-----------3---3---------------|
|3-----------3---3---------------|--------------------------------|
|--------------------------------|--------------------------------|

 |       |       |       |        |       |       |       |
|--------------------------------|--------------------------------|
|--------------------------------|--------------------------------|
|3-----------3-------------------|3-----------3---2---------------|
|----------------3---------------|--------------------------------|

 |       |       |       |        |       |       |       |
|--------------------------------|--------------------------------|
|--------------------------------|3-----------3---3---------------|
|0-----------0-------------------|--------------------------------|
|----------------3---------------|--------------------------------|

 |       |       |       |        |       |       |       |
|0-----------0---0-----0---------|--------------------------------|
|--------------------------------|--------------------------------|
|--------------------------------|3-----------3---2---------------|
|--------------------------------|--------------------------------|

 |       |       |       |        |       |       |       |
|--------------------------------|--------------------------------|
|--------------------------------|3-----------3---3-------3-------|
|0-----------0-------------------|--------------------------------|
|----------------3---------------|--------------------------------|

 |       |       |       |        Oh ! lord,      |       |
|--------------------------------|--------------------------------|
|------------------------2---5---|--------------------------------|
|3-----------3---3---3-----------|3-----------3-------------------|
|--------------------------------|----------------3-------3-------|

 stuck in|lodi ...       |        |       |       |       |
|--------------------------------|--------------------------------|
|5-----------5-------------------|3-----------3-------------------|
|----------------5---------------|----------------3-------3-------|
|--------------------------------|--------------------------------|

 |       |       |       |        Oh ! lord,...   |       |
|--------------------------------|--------------------------------|
|--------------------------------|--------------------------------|
|3-----------3---3---------------|3-----------3-------------------|
|--------------------------------|----------------3-------3-------|

 |       |       |       |        |       |       |       |
|--------------------------------|--------------------------------|
|5-----------5-------------------|3-----------3-------------------|
|----------------5---------------|----------------3-------3-------|
|--------------------------------|--------------------------------|

 |       |       |       |        |       |       |       |
|--------------------------------|--------------------------------|
|------------------------2---5---|--------------------------------|
|3-----------3---3---3-----------|3-----------3-------------------|
|--------------------------------|----------------3---------------|

 |       |       |       |        |       |       |       |
|--------------------------------|--------------------------------|
|------------------------2-------|3-----------3---3---3---3---3---|
|3-----------3---3---------------|--------------------------------|
|--------------------------------|--------------------------------|

 |       |       |       |        |       |       |       |
|--------------------------------|--------------------------------|
|------------------------2---5---|--------------------------------|
|3---------------3---3-----------|3-----------3-------------------|
|--------------------------------|----------------3---3---3-------|

 |       |       |       |        |       |       |       |
|--------------------------------|--------------------------------|
|--------------------------------|5-----------5---3-------3---3---|
|3-----------3-------------------|--------------------------------|
|----------------3---------------|--------------------------------|

 |       |       |       |        |       |       |       |
|--------------------------------|--------------------------------|
|------------------------2---5---|--------------------------------|
|3-----------3---3---3-----------|3-----------3-------------------|
|--------------------------------|----------------3---3-----------|

 |       |       |       |        |       |       |       |
|--------------------------------|---------  (fading) ------------|
|------------------------2-------|3-----------3---3---3---3-------|
|3-----------3---3---------------|--------------------------------|
|--------------------------------|--------------------------------|

 |       |       |       |
|--------------------------------|
|------------------------2---5---|
|3-----------3---3---3-----------|
|--------------------------------|


Transcribe! 6.0 transcription http://www.seventhstring.demon.co.uk/
Created with TablEdit http://www.tabledit.com/
http://www.geocities.com/jani_bjorklund/janis.html?1058405404377


=====
Jan Bjorklund, Finland
  development and support by
dmitry ivanov