rock
 
|tablatures   |lyrics   |discussion forums   |more tabs @ XGuitar.com

Creedence Clearwater Revival tabs

Keep On Chooglin guitar tab

#----------------------------------PLEASE NOTE--------------------------------#
#This file is the author's own work and represents their interpretation of the#
#song. You may only use this file for private study, scholarship, or research.#
#-----------------------------------------------------------------------------#
#-- File created with Instab - http://www.pconline.com/~smcarey/instab.html --#
#-----------------------------------------------------------------------------#

Author/Artist: creedence clearwater revival
Title: keep on chooglin
Album: bayou country
Transcribed by: jon triggs
Email: jtr7358683@aol.com

im kinda surprised that no one else has tabbed this song so i did it
the solos may not be right but they're solos you should improvise and
make up your own

standard tuning

------------------------------------------------------------------------------
------------------------------------------------------------------------------
------------------------------------------------------------------------------
-----5b6r--------------5b6r-------------5b6r-------------5b6r-----------------
-5-7------7-5-7-7--5-7------7-5-7---5-7------7-5-7-7-5-7------7-5-7-----------
----------------------------------3---------------------------------3---------


------------------------------------------------------------------------------
------------------------------------------------------------------------------
----------------12b13r------------------------------------12b13r--------------
-12-14-14-12-14--------14-12-14-14-12-14---12-14-14-12-14--------14-12-14-14--
------------------------------------------------------------------------------
-----------------------------------------3------------------------------------


------------------------------------------------------------------------------
------------------------------------------------------------------------------
------------------------------------------------------------------------------
-12-14-14---------------------------------------------------------------------
----------------------------5-7-7------------------5-7------------------------
-------------------------------------------------------3----------------------
           keep on chooglin       keep on chooglin       keep on chooglin

------------------------------------------------------------------------------
------------------------------------------------------------------------------
------------------------------------------------------------------------------
--5b6r------------5b6r------------5b6r---5b6r---------------------------------
--5----7----------5----7----------5----7-5----7-5-7-7-5-7-7-------------------
------------------------------------------------------------------------------
         chooglin        chooglin                            maybe you dont

------------------------------------------------------------------------------
------------------------------------------------------------------------------
---------------12b13r---------------------------------------------------------
---------------12-----14---------------------------12b13r---------------------
---------------------------------------------------12-----14------------------
------------------------------------------------------------------------------
 understand it           but if your a natural man           you've got to

------------------------------------------------------------------------------
------------------------------------------------------------------------------
------------------------------------------------------------------------------
---------------------------14--------------------------------12b-14-12b-14----
---------------------------14-------------------------------------------------
------------------------------------------------------------------------------
 ball and have a good time    and thats what i call chooglin

------------------------------------------------------------------------------
------------------------------------------------------------------------------
------------------------------------------------------------------------------
-12b-14-----------------5b6r------------------5b6r----------------------------
------------------------5---------------------5-------------------------------
------------------------------------------------------------------------------
        here comes mary      lookin for harry      she gonna choogle tonight

------------------------------------------------------------------------------
------------------------------------------------------------------------------
------------------------------------------------------------------------------
--5b6r-----------------------5b6r--------------------5b6r---------------------
--5----5-7-7-----------------5-----------------------5------------------------
------------------------------------------------------------------------------
             her comes louie      works in the sewer       he gonna choogle

------------------------------------------------------------------------------
------------------------------------------------------------------------------
------------------------------------------------------------------------------
---------5b6r-----------------------------------------------------------------
---------5----5-7-7------------------5-7-7-------------------5-7-7------------
------------------------------------------------------------------------------
 tonight            keep on chooglin       keep on chooglin        keep on

------------------------------------------------------------------------------
------------------------------------------------------------------------------
------------------------------------------------------------------------------
-----------5b6r------------5b6r--------------5b6r------5b6r-------------------
-----------5----7----------5----7------------5----7----5----7--5-7-7-5-7-7----
------------------------------------------------------------------------------
 chooglin         chooglin        chooglin  chooglin  chooglin

------------------------------------------------------------------------------
------------------------------------5-----------------5-----------------------
------------------------------------------------------------------------------
-7b------7r-7p5---7b-7h5---5h7p5-7b---5h7p5---5-7-5---------------------------
----------------7--------7------------------7-------7-------------------------
------------------------------------------------------------------------------


------------------------------------------------------------------------------
-0h3h5p0h3h5p0h3h5p0h3h5p0h3h5-0-5p0-8-7-5-5--0h3h5p0h3h5p0h3h5p0h3h5p0h3h5---
---------------------------------4p0-7-6-4-4----------------------------------
------------------------------------------------------------------------------
------------------------------------------------------------------------------
------------------------------------------------------------------------------


-------------------5--------5---5---------------------------------------------
-0-5h0-8-7-5-5--7b---7r---5-7-b---7b---5-7b---5--12---9---12---9---12---9-----
---4h0-7-6-4-4----------7------------7------7----12---9---12---9---12---9-----
-------------------------------------------------12---9---12---9---12---9-----
------------------------------------------------------------------------------
------------------------------------------------------------------------------


------------------------------------------------------------------------------
-12-12-9-9-12-12-9-9-12-12-9-9-12-12-9-9-12-12-12-12-12-12-12-12-9v-----------
-12-12-9-9-12-12-9-9-12-12-9-9-12-12-9-9-12-12-12-12-12-12-12-12-9v-----------
-12-12-9-9-12-12-9-9-12-12-9-9-12-12-9-9-12-12-12-12-12-12-12-12-9v-----------
------------------------------------------------------------------------------
------------------------------------------------------------------------------


-------------------|------------------------------|---------------------------
-------------------|-----------x---3--------------|---------------------------
-------------------|-----------x---1--------------|---------------------------
-----2-----------2-|-----------x---2--------------|-----2----------2----------
-------------------|-----------x------------------|---------------------------
-5-3---------5-3---|------------------------------|-5-3--------5-3------------
                     harmonica strum this pattern

--------------------/12v--/12-12-12-12-12-12------12-----12-----12-----12-----
--------------------/12v--/12-12-12-12-12-12--15b----15b----15b----15b--------
------------------------------------------------------------------------------
-----2----------2-------------------------------------------------------------
------------------------------------------------------------------------------
-5-3--------5-3---------------------------------------------------------------


-15p14p12-------------------------------12-----12-----12-----15b-15-12h15p12--
----------15-15b-12-10\\/10b12-12-15-15b----15b----15b----15b------------------
------------------------------------------------------------------------------
------------------------------------------------------------------------------
------------------------------------------------------------------------------
------------------------------------------------------------------------------


-15b-12h15p12----12h15p12----12-15b-12h15p12----12----12-15b-15b-15b-15b-15b--
--------------15----------15-----------------15----15-------------------------
------------------------------------------------------------------------------
------------------------------------------------------------------------------
------------------------------------------------------------------------------
------------------------------------------------------------------------------


-15b-15b-15----12-----------12-------------------------------------------12---
------------15----12\\/12-15----15br15p12----12-15br15p12----12-12h15-15b------
-----------------------------------------14--------------14-------------------
------------------------------------------------------------------------------
------------------------------------------------------------------------------
------------------------------------------------------------------------------


-----12-----12-----12h15p12----12-12h15-17b-17-17b-17b-17b-17-15--17b-17b-----
-15b----15b----15b----------15------------------------------------------------
------------------------------------------------------------------------------
------------------------------------------------------------------------------
------------------------------------------------------------------------------
------------------------------------------------------------------------------


-17b-17b-15v------------------------------------------------------------------
---------15v--12---9---12---9---12---9---12-12-9-9-12-12-9-9-12-12-12-12-12---
--------------12---9---12---9---12---9---12-12-9-9-12-12-9-9-12-12-12-12-12---
--------------12---9---12---9---12---9---12-12-9-9-12-12-9-9-12-12-12-12-12---
------------------------------------------------------------------------------
------------------------------------------------------------------------------


------------------------------------------------------------------------------
-12-12-12-9v-----/9-9--9--9--9--9--9-7/9-7/9--9-9--9--9--9--9--9--12-9-12-9---
-12-12-12-9v-----/9-9--9--9--9--9--9-7/9-7/9--9-9--9--9--9--9--9--12-9-12-9---
-12-12-12-9v-----/9-9--9--9--9--9--9-7/9-7/9--9-9--9--9--9--9--9--12-9-12-9---
------------------------------------------------------------------------------
------------------------------------------------------------------------------


------------------------------------------------------------------------------
-7-9--9-9--9--9--9--9--9--12-9-7-9v-------------------------------------------
-7-9--9-9--9--9--9--9--9--12-9-7-9v-------------------------------------------
-7-9--9-9--9--9--9--9--9--12-9-7-9v-------5b6r--------------5b6r--------------
--------------------------------------5-7------5-7-7--5-7-7------5-7-7--------
-----------------------------------------------------------------------3------


------------------------------------------------------------------------------
------------------------------------------------------------------------------
------------------------------------------------------------------------------
-----5b6r---------------------------------------------------------------------
-5-7------7-5-7-7-5-7-7-5-7-7------------------5-7-7------------------5-7-----
--------------------------------------------------------------------------3---
                              keep on chooglin       keep on chooglin

------------------------------------------------------------------------------
------------------------------------------------------------------------------
------------------------------------------------------------------------------
------------------5b6r------------5b6r------------5b6r---5b6r-----------------
------------------5----7----------5----7----------5----7-5----7-5-7-7-5-7-7---
------------------------------------------------------------------------------
 keep on chooglin        chooglin        chooglin

------------------------------------------------------------------------------
------------------------------------------------------------------------------
------------------------------------------------------------------------------
----------------------5b6--------------------5b6------------------------------
----------------------5----------------------5--------------------------------
------------------------------------------------------------------------------
 if you can choose it      who can refuse it     yall be chooglin tonight

------------------------------------------------------------------------------
------------------------------------------------------------------------------
------------------------------------------------------------------------------
-5b6r----------------------------5b6--------------------5b6-------------------
-5----7-5-7----------------------5----------------------5---------------------
------------------------------------------------------------------------------
            Go on take your pick     right from the git go      you gotta

------------------------------------------------------------------------------
------------------------------------------------------------------------------
------------------------------------------------------------------------------
--------------5b6r------------------------------------------------------------
--------------5----7-5-7-7------------------5-7-7------------------5-7-7------
------------------------------------------------------------------------------
 choogle tonight           keep on chooglin       keep on chooglin

------------------------------------------------------------------------------
------------------------------------------------------------------------------
------------------------------------------------------------------------------
------------------5b6r------------5b6r------------------------5b6r------------
------------------5----7----------5----7----------------------5----7----------
------------------------------------------------------------------------------
 keep on chooglin        chooglin        chooglin  chooglin  chooglin

-----------------------------------------------------------------/12-12-10----
-----------------------------------------------------------------/12-12-10----
------------------------------------------------------------------------------
--5b6r------5b6r------5b6r------5b6r------5br6------5b6r----------------------
--5----7----5----7----5----7----5----7----5----7----5---7-5-7-7---------------
------------------------------------------------------------------------------
 chooglin  chooglin  chooglin

--9-7-7-7--/12-12-10--9-7--/12-12-10--9-7-7-5-4-2-0---------------------------
-10-7-7-7--/12-12-10-10-7--/12-12-10-10-7-7-5-5-2-0---------------------------
------------------------------------------------------------------------------
------------------------------------------------------------------------------
------------------------------------------------------------------------------
------------------------------------------------------------------------------


------------------------------------------------------------------------------
-0h3h5p0h3h5p0h3h5p0h3h5p0h3h5-0-5h0-8-7-5-5--0h3h5p0h3h5p0h3h5p0h3h5p0h3h5---
---------------------------------4h0-7-6-4-4----------------------------------
------------------------------------------------------------------------------
------------------------------------------------------------------------------
------------------------------------------------------------------------------


------------------x-x-x-x-x-x-x-x-x-x-x-12-x-x-x-x-x-x-x-x-12-x-x-x-x-x-12----
-0-5h0-8-7-5-5v---x-x-x-x-x-x-x-x-x-x-x-12-x-x-x-x-x-x-x-x-12-x-x-x-x-x-12----
---4h0-7-6-4-4v---x-x-x-x-x-x-x-x-x-x-x-12-x-x-x-x-x-x-x-x-12-x-x-x-x-x-12----
------------------x-x-x-x-x-x-x-x-x-x-x-12-x-x-x-x-x-x-x-x-12-x-x-x-x-x-12----
------------------x-x-x-x-x-x-x-x-x-x-x-12-x-x-x-x-x-x-x-x-12-x-x-x-x-x-12----
------------------x-x-x-x-x-x-x-x-x-x-x-12-x-x-x-x-x-x-x-x-12-x-x-x-x-x-12----
                   (i didnt count how many times to do this but i got the

-x-x-x-12-x-12-x-12-x-12------------------------------------------------------
-x-x-x-12-x-12-x-12-x-12------------------------------------------------------
-x-x-x-12-x-12-x-12-x-12------------------------------------------------------
-x-x-x-12-x-12-x-12-x-12------------------------------------------------------
-x-x-x-12-x-12-x-12-x-12------------------------------------------------------
-x-x-x-12-x-12-x-12-x-12------------------------------------------------------
 pattern down)          (at the end just play the 12 fret on all strins)
  development and support by
dmitry ivanov