rock
 
|tablatures   |lyrics   |discussion forums   |more tabs @ XGuitar.com

Creedence Clearwater Revival tabs

Fortunate Son bass tab

From: John Speas at kaspeas@worldnet.att.net
Bass tab to Fortunate Son by Credence Clearwater Revival
Standard tuning


Intro                   (10x)
G|--------------------------|
D|.------------------------.|
A|.------------------------.|
E|--3--3--3--3--3--3--3--3--|

Verse Riff:
|--------------------------|--------------------------|
|--------------------------|--------------------------|
|--------------------------|-----------------0--1--2--|
|--3--3--3--3--3--3--3--3--|--1--1--1--1--1-----------|

|--------------------------|--------------------------|
|--------------------------|--------------------------|
|--3--3--3--3--3--3--3--3--|--------------------------|
|--------------------------|--3--3--3--3--3--3--3--3--|

Chorus Riff:
|--------------------------|--------------------------|
|--------------------------|--------------------------|
|--------------------------|--5--5--5--5--5--5--5--4--|
|--3--3--3--3--3--3--3--3--|--------------------------|

|--------------------------|--------------------------|
|--------------------------|--------------------------|
|--3--3--3--3--3-----------|--------------------------|
|-----------------0--1--2--|--3--3--3--3--3--3--3--3--|


Notes:
The interlude section is all on G, mostly quarter notes and some eigth-
notes.  A simple song but a great jam at parties.
  development and support by
dmitry ivanov