rock
 
|tablatures   |lyrics   |discussion forums   |more tabs @ XGuitar.com

Creedence Clearwater Revival tabs

Born On The Bayou Lead (rytme guitar) guitar tab

                              Born on the bayou                                 


                                                    Creedence Clearwater Revival
Rhythm Guitar



                                                                               
E||------------------|------------------|------------------|------------------|
B||------------------|------------------|------------------|------------------|
G||------------------|------------------|------------------|------------------|
D||------------------|------------------|------------------|------------------|
A||------------------|------------------|------------------|------------------|
E||------------------|------------------|------------------|------------------|


                                                                        
------------------|-----0-----0-----0-----0--|----0-----0-----0--0-----|
------------------|-----3-----3-----3-----3--|----3-----3-----3--3-----|
------------------|-----1-----1-----1-----1--|----1-----1-----1--1-----|
------------------|--2-----2-----2-----2-----|-------2-----2--------2--|
------------------|--2-----2-----2-----2-----|-------2--------------2--|
------------------|--0-----0-----0-----0-----|-------0--------------0--|


                                                                              
-----0----0-----0-----0--|----0-----0-----0--0-----|-----0----0-----0-----0--|
-----3----3-----3-----3--|----3-----3-----3--3-----|-----3----3-----3-----3--|
-----1----1-----1-----1--|----1-----1-----1--1-----|-----1----1-----1-----1--|
--2----------2-----2-----|-------2-----2--------2--|--2----------------2-----|
--2----------2-----2-----|-------2-----2--------2--|--2----------------2-----|
--0----------0-----0-----|-------0-----0--------0--|--0----------0-----0-----|


                                                                               
-----0-----0-----0-------|-----0----0-----0-----0--|-----0-----0-----0-----0--|
-----3-----3-----3-------|-----3----3-----3-----3--|-----3-----3-----3-----3--|
-----1-----1-----1-------|-----1----1-----1-----1--|-----1-----1-----1-----1--|
--2-----2-----2-----2----|--2----------2-----2-----|--2-----2-----2-----2-----|
--2-----2-----2-----2----|--2----------2-----2-----|--2-----2-----2-----2-----|
--0-----0-----0-----0----|--0----------0-----0-----|--0-----0-----0-----0-----|


                                                                                
-----0--0-----0-------0--|-----0-----0-----0--0-----|-----0-----0-----0-----0--|
-----3--3-----3-------3--|-----3-----3-----3--3-----|-----3-----3-----3-----3--|
-----1--1-----1-------1--|-----1-----1-----1--1-----|-----1-----1-----1-----1--|
--2--------2-----2-------|--2-----2-----2--------2--|--2-----2-----2-----2-----|
--2--------2-----2-------|--2-----2-----2--------2--|--2-----2-----2-----2-----|
--0--------0-----0-------|--0-----0-----0--------0--|--0-----0-----0-----0-----|


                                                                                
-----0-----0-----0-----0--|-------0-----0--0-----0--|-----0-----0-----0-----0--|
-----3-----3-----3-----3--|-------3-----3--3-----3--|-----3-----3-----3-----3--|
-----1-----1-----1-----1--|-------1-----1--1-----1--|-----1-----1-----1-----1--|
--2-----2-----2-----2-----|--2-------2--------2-----|--2-----2-----2-----2-----|
--2-----2-----2-----2-----|--2-------2--------------|--2-----2-----2-----2-----|
--0-----0-----0-----0-----|--0-------0--------0-----|--0-----0-----0-----0-----|


                                                                               
-------0-----0--0-----0--|-----0-----0-----0-----0--|-------0-----0-----0--0--|
-------3-----3--3-----3--|-----3-----3-----3-----3--|-------3-----3-----3--3--|
-------1-----1--1-----1--|-----1-----1-----1-----1--|-------1-----1-----1--1--|
--2-------2--------2-----|--2-----2-----2-----2-----|--2-------2-----2--------|
--2-------2--------2-----|--2-----2-----2-----2-----|--2-------2-----2--------|
--0-------0--------0-----|--0-----0-----0-----0-----|--0-------0-----0--------|


                                                      
-----0-----0-----0-----0--|-----0-----0-----0-----0--|
-----3-----3-----3-----3--|-----3-----3-----3-----3--|
-----1-----1-----1-----1--|-----1-----1-----1-----1--|
--2-----2-----2-----2-----|--2-----2-----2-----2-----|
--2-----2-----2-----2-----|--2-----2-----2-----2-----|
--0-----0-----0-----0-----|--0-----0-----0-----0-----|


                                                      
-----0-----0-----0-----0--|-----0-----0-----0-----0--|
-----3-----3-----3-----3--|-----3-----3-----3-----3--|
-----1-----1-----1-----1--|-----1-----1-----1-----1--|
--2-----2-----2-----2-----|--2-----2-----2-----2-----|
--2-----2-----2-----2-----|--2-----2-----2-----2-----|
--0-----0-----0-----0-----|--0-----0-----0-----0-----|


                                                      
-----0-----0-----0-----0--|-----0-----0-----0-----0--|
-----3-----3-----3-----3--|-----3-----3-----3-----3--|
-----1-----1-----1-----1--|-----1-----1-----1-----1--|
--2-----2-----2-----2-----|--2-----2-----2-----2-----|
--2-----2-----2-----2-----|--2-----2-----2-----2-----|
--0-----0-----0-----0-----|--0-----0-----0-----0-----|


                                                                              
-----0-----0-----0-----0--|-----0-----0-----0-----0--|----0-----2----0----0--|
-----3-----3-----3-----3--|-----3-----3-----3-----3--|----3-----3----2----2--|
-----1-----1-----1-----1--|-----1-----1-----1-----1--|----1-----2----2----2--|
--2-----2-----2-----2-----|--2-----2-----2-----2-----|-------2---------------|
--2-----2-----2-----2-----|--2-----2-----2-----2-----|-------2---------------|
--0-----0-----0-----0-----|--0-----0-----0-----0-----|-------0---------------|


                                                                            
-----0----0-----0-----0--|----0-----2----0----0--|-----0----0-----0-----0--|
-----3----3-----3-----3--|----3-----3----2----2--|-----3----3-----3-----3--|
-----1----1-----1-----1--|----1-----2----2----2--|-----1----1-----1-----1--|
--2----------2-----------|-------2---------------|--2----------2-----2-----|
--2----------2-----------|-------2---------------|--2----------2-----2-----|
--0----------0-----0-----|-------0---------------|--0----------0-----0-----|


                                                                          
----0-----2----0----0--|-----0----0-----0--0--0--|-----0----2----0----0--|
----3-----3----2----2--|-----3----3-----3--3--3--|-----3----3----2----2--|
----1-----2----2----2--|-----1----1-----1--1--1--|-----1----2----2----2--|
-------2---------------|--2----------2-----------|--2--------------------|
-------2---------------|--2----------2-----------|-----------------------|
-------0---------------|--0----------0-----------|--0--------------------|


                                                                            
-------0-----0--0-----0--|----0-----2----0----0--|-------0-----0--0-----0--|
-------3-----3--3-----3--|----3-----3----2----2--|-------3-----3--3-----3--|
-------1-----1--1-----1--|----1-----2----2----2--|-------1-----1--1-----1--|
--2-------2--------2-----|-------2---------------|--2-------2--------2-----|
--2-------2--------2-----|-----------------------|--2-------2--------2-----|
--0-------0--------0-----|-----------------------|--0-------0--------0-----|


                                                                                
-----0-----0-----0-----0--|-------0-----0--0-----0--|-----0-----0-----0-----0--|
-----3-----3-----3-----3--|-------3-----3--3-----3--|-----3-----3-----3-----3--|
-----1-----1-----1-----1--|-------1-----1--1-----1--|-----1-----1-----1-----1--|
--2-----2-----2-----2-----|--2-------2--------2-----|--2-----2-----2-----2-----|
--2-----2-----2-----2-----|--2-------2--------2-----|--2-----2-----2-----2-----|
--0-----0-----0-----0-----|--0-------0--------0-----|--0-----0-----0-----0-----|


                                                                               
-------0-----0--0-----0--|-----0-----0-----0-----0--|-------0-----0--0-----0--|
-------3-----3--3-----3--|-----3-----3-----3-----3--|-------3-----3--3-----3--|
-------1-----1--1-----1--|-----1-----1-----1-----1--|-------1-----1--1-----1--|
--2-------2--------2-----|--2-----2-----2-----2-----|--2-------2--------2-----|
--2-------2--------2-----|--2-----2-----2-----2-----|--2-------2--------2-----|
--0-------0--------0-----|--0-----0-----0-----0-----|--0-------0--------0-----|


                                                                                
-----0-----0-----0-----0--|-------0-----0--0-----0--|-----0-----0-----0-----0--|
-----3-----3-----3-----3--|-------3-----3--3-----3--|-----3-----3-----3-----3--|
-----1-----1-----1-----1--|-------1-----1--1-----1--|-----1-----1-----1-----1--|
--2-----2-----2-----2-----|--2-------2--------2-----|--2-----2-----2-----2-----|
--2-----2-----2-----2-----|--2-------2--------2-----|--2-----2-----2-----2-----|
--0-----0-----0-----0-----|--0-------0--------0-----|--0-----0-----0-----0-----|


                                                                               
-------0-----0--0-----0--|-----0-----0-----0-----0--|-------0-----0--0-----0--|
-------3-----3--3-----3--|-----3-----3-----3-----3--|-------3-----3--3-----3--|
-------1-----1--1-----1--|-----1-----1-----1-----1--|-------1-----1--1-----1--|
--2-------2--------2-----|--2-----2-----2-----2-----|--2-------2--------2-----|
--2-------2--------2-----|--2-----2-----2-----2-----|--2-------2--------2-----|
--0-------0--------0-----|--0-----0-----0-----0-----|--0-------0--------0-----|


                                                                                
-----0-----0-----0-----0--|-------0-----0--0-----0--|-----0-----0-----0-----0--|
-----3-----3-----3-----3--|-------3-----3--3-----3--|-----3-----3-----3-----3--|
-----1-----1-----1-----1--|-------1-----1--1-----1--|-----1-----1-----1-----1--|
--2-----2-----2-----2-----|--2-------2--------2-----|--2-----2-----2-----2-----|
--2-----2-----2-----2-----|--2-------2--------2-----|--2-----2-----2-----2-----|
--0-----0-----0-----0-----|--0-------0--------0-----|--0-----0-----0-----0-----|


                                                                          
--2----2----0--0----0--|----0-----0-----0-----0--|--2----2----0--0----0--|
--3----3----2--2----0--|----0-----0-----0-----0--|--3----3----2--2----0--|
--2----2----2--2----1--|----1-----1-----1-----1--|--2----2----2--2----1--|
--------------------2--|-------2-----2-----2-----|--------------------2--|
-----------------------|-------2-----2-----2-----|-----------------------|
--------------------0--|-------0-----0-----0-----|--------------------0--|


                                                                            
----0-----0-----0-----0--|--2----2----0--0--0----|----0-----0-----0-----0--|
----0-----0-----0-----0--|--3----3----2--2--0----|----0-----0-----0-----0--|
----1-----1-----1-----1--|--2----2----2--2--1----|----1-----1-----1-----1--|
-------2-----2-----2-----|-----------------------|-------2-----2-----2-----|
-------2-----2-----2-----|-----------------------|-------2-----2-----2-----|
-------0-----0-----0-----|-----------------------|-------0-----0-----0-----|


                                                                             
--2----2----0--0----0--|----0-----0-----0-----0--|-----0-----0-----0-----0--|
--3----3----2--2----0--|----0-----0-----0-----0--|-----0-----0-----0-----0--|
--2----2----2--2----1--|----7-----7-----7-----7--|-----7-----7-----7-----7--|
--------------------2--|----6-----6-----6-----6--|-----6-----6-----6-----6--|
--------------------2--|-------7-----7-----7-----|--7-----7-----7-----7-----|
--------------------0--|-------0-----0-----0-----|--0-----0-----0-----0-----|


                                                      
-----0-----0-----0-----0--|--0--0-----0-----0-----0--|
-----0-----0-----0-----0--|--0--0-----0-----0-----0--|
-----7-----7-----7-----7--|--7--7-----7-----7-----7--|
-----6-----6-----6-----6--|--6--6-----6-----6-----6--|
--7-----7-----7-----7-----|--7-----7-----7-----7-----|
--0-----0-----0-----0-----|--0-----0-----0-----0-----|


                                                      
-----0-----0-----0-----0--|--0--0-----0-----0-----0--|
-----0-----0-----0-----0--|--0--0-----0-----0-----0--|
-----7-----7-----7-----7--|--7--7-----7-----7-----7--|
-----6-----6-----6-----6--|--6--6-----6-----6-----6--|
--7-----7-----7-----7-----|--7-----7-----7-----7-----|
--0-----0-----0-----0-----|--0-----0-----0-----0-----|


                                                      
-----0-----0-----0-----0--|--0--0-----0-----0-----0--|
-----0-----0-----0-----0--|--0--0-----0-----0-----0--|
-----7-----7-----7-----7--|--7--7-----7-----7-----7--|
-----6-----6-----6-----6--|--6--6-----6-----6-----6--|
--7-----7-----7-----7-----|--7-----7-----7-----7-----|
--0-----0-----0-----0-----|--0-----0-----0-----0-----|


                                                                               
-----0-----0-----0-----0--|-----0----0-----0-----0--|----0-----0-----0--0-----|
-----0-----0-----0-----0--|-----3----3-----3-----3--|----3-----3-----3--3-----|
-----7-----7-----7-----7--|-----1----1-----1-----1--|----1-----1-----1--1-----|
-----6-----6-----6-----6--|--2----------2-----2-----|-------2-----2--------2--|
--7-----7-----7-----7-----|--2----------2-----2-----|-------2-----2--------2--|
--0-----0-----0-----0-----|--0----------0-----0-----|-------0-----0--------0--|


                                                                              
-----0----0-----0-----0--|-----0-----0-----0-------|-----0----0-----0-----0--|
-----3----3-----3-----3--|-----3-----3-----3-------|-----3----3-----3-----3--|
-----1----1-----1-----1--|-----1-----1-----1-------|-----1----1-----1-----1--|
--2----------------2-----|--2-----2-----2-----2----|--2----------2-----2-----|
--2----------------2-----|--2-----2-----2-----2----|--2----------2-----2-----|
--0----------0-----0-----|--0-----0-----0-----0----|--0----------0-----0-----|


                                                                                
-----0-----0-----0-----0--|-----0----0-----0-----0--|-----0-----0-----0--0-----|
-----3-----3-----3-----3--|-----3----3-----3-----3--|-----3-----3-----3--3-----|
-----1-----1-----1-----1--|-----1----1-----1-----1--|-----1-----1-----1--1-----|
--2-----2-----2-----2-----|--2----------2-----2-----|--2-----2-----2--------2--|
--2-----2-----2-----2-----|--2----------2-----2-----|--2-----2-----2--------2--|
--0-----0-----0-----0-----|--0----------0-----0-----|--0-----0-----0--------0--|


                                                                                
-----0-----0-----0-----0--|-----0-----0-----0-----0--|-------0-----0--0-----0--|
-----3-----3-----3-----3--|-----3-----3-----3-----3--|-------3-----3--3-----3--|
-----1-----1-----1-----1--|-----1-----1-----1-----1--|-------1-----1--1-----1--|
--2-----2-----2-----2-----|--2-----2-----2-----2-----|--2-------2--------2-----|
--2-----2-----2-----2-----|--2-----2-----2-----2-----|-------------------------|
--0-----0-----0-----0-----|--0-----0-----0-----0-----|--0-------0--------0-----|


                                                                                
-----0-----0-----0-----0--|-------0-----0--0-----0--|-----0-----0-----0-----0--|
-----3-----3-----3-----3--|-------3-----3--3-----3--|-----3-----3-----3-----3--|
-----1-----1-----1-----1--|-------1-----1--1-----1--|-----1-----1-----1-----1--|
--2-----2-----2-----2-----|--2-------2--------2-----|--2-----2-----2-----2-----|
--2-----2-----2-----2-----|--2-------2--------2-----|--2-----2-----2-----2-----|
--0-----0-----0-----0-----|--0-------0--------0-----|--0-----0-----0-----0-----|


                                                                                
-------0-----0-----0--0--|-----0-----0-----0-----0--|-----0-----0-----0-----0--|
-------3-----3-----3--3--|-----3-----3-----3-----3--|-----3-----3-----3-----3--|
-------1-----1-----1--1--|-----1-----1-----1-----1--|-----1-----1-----1-----1--|
--2-------2-----2--------|--2-----2-----2-----2-----|--2-----2-----2-----2-----|
--2-------2-----2--------|--2-----2-----2-----2-----|--2-----2-----2-----2-----|
--0-------0-----0--------|--0-----0-----0-----0-----|--0-----0-----0-----0-----|


                                                      
-----0-----0-----0-----0--|-----0-----0-----0-----0--|
-----3-----3-----3-----3--|-----3-----3-----3-----3--|
-----1-----1-----1-----1--|-----1-----1-----1-----1--|
--2-----2-----2-----2-----|--2-----2-----2-----2-----|
--2-----2-----2-----2-----|--2-----2-----2-----2-----|
--0-----0-----0-----0-----|--0-----0-----0-----0-----|


                                                                                
-----0-----0-----0-----0--|-----0----0-----0-----0--|-----0-----0-----0-----0--|
-----3-----3-----3-----3--|-----3----3-----3-----3--|-----3-----3-----3-----3--|
-----1-----1-----1-----1--|-----1----1-----1-----1--|-----1-----1-----1-----1--|
--2-----2-----2-----2-----|--2----------2-----2-----|--2-----2-----2-----2-----|
--2-----2-----2-----2-----|--2----------2-----2-----|--2-----2-----2-----2-----|
--0-----0-----0-----0-----|--0----------0-----0-----|--0-----0-----0-----0-----|


                                                                                
-----0----0-----0-----0--|-----0-----0-----0--0-----|-----0-----0-----0-----0--|
-----3----3-----3-----3--|-----3-----3-----3--3-----|-----3-----3-----3-----3--|
-----1----1-----1-----1--|-----1-----1-----1--1-----|-----1-----1-----1-----1--|
--2----------2-----2-----|--2-----2-----2--------2--|--2-----2-----2-----2-----|
--2----------2-----2-----|--2-----2-----2--------2--|--2-----2-----2-----2-----|
--0----------0-----0-----|--0-----0-----0--------0--|--0-----0-----0-----0-----|


                                                                                
-----0-----0-----0-----0--|-------0-----0--0-----0--|-----0-----0-----0-----0--|
-----3-----3-----3-----3--|-------3-----3--3-----3--|-----3-----3-----3-----3--|
-----1-----1-----1-----1--|-------1-----1--1-----1--|-----1-----1-----1-----1--|
--2-----2-----2-----2-----|--2-------2--------2-----|--2-----2-----2-----2-----|
--2-----2-----2-----2-----|-------------------------|--2-----2-----2-----2-----|
--0-----0-----0-----0-----|--0-------0--------0-----|--0-----0-----0-----0-----|


                                                                               
-----0----0-----0-----0--|-----0-----0-----0-----0--|-----0----0-----0-----0--|
-----3----3-----3-----3--|-----3-----3-----3-----3--|-----3----3-----3-----3--|
-----1----1-----1-----1--|-----1-----1-----1-----1--|-----1----1-----1-----1--|
--2----------2-----2-----|--2-----2-----2-----2-----|--2----------2-----2-----|
--2----------2-----2-----|--2-----2-----2-----2-----|--2----------2-----2-----|
--0----------0-----0-----|--0-----0-----0-----0-----|--0----------0-----0-----|


                                                          
-----0-----0-----0--0-----|-----0--------0-----0------0--|
-----3-----3-----3--3-----|-----3--------3-----3------3--|
-----1-----1-----1--1-----|-----1--------1-----1------1--|
--2-----2-----2--------2--|--2-------2------2-----2------|
--2-----2-----2--------2--|------------------------------|
--0-----0-----0--------0--|--0-------0------0-----0------|


                                                                          
-----0-----0-----0-----0--|--2----2----0--0----0--|----0----0----0----0--|
-----3-----3-----3-----3--|--3----3----2--2----3--|----3----3----3----3--|
-----1-----1-----1-----1--|--2----2----2--2----1--|----1----1----1----1--|
--2-----2-----2-----2-----|-----------------------|----------------------|
--2-----2-----2-----2-----|-----------------------|----------------------|
--0-----0-----0-----0-----|-----------------------|----------------------|


                                                                            
--0----0----0----0----|-----0----0-----0-----0--|-----0-----0-----0-----0--|
--3----3----3----3----|-----3----3-----3-----3--|-----3-----3-----3-----3--|
--1----1----1----1----|-----1----1-----1-----1--|-----1-----1-----1-----1--|
----------------------|--2----------2-----2-----|--2-----2-----2-----2-----|
----------------------|--2----------2-----2-----|--2-----2-----2-----2-----|
----------------------|--0----------0-----0-----|--0-----0-----0-----0-----|


                                                                               
-----0----0-----0-----0--|-----0-----0-----0-----0--|-----0----0-----0-----0--|
-----3----3-----3-----3--|-----3-----3-----3-----3--|-----3----3-----3-----3--|
-----1----1-----1-----1--|-----1-----1-----1-----1--|-----1----1-----1-----1--|
--2----------2-----2-----|--2-----2-----2-----2-----|--2----------2-----2-----|
--2----------2-----2-----|--2-----2-----2-----2-----|--2----------2-----2-----|
--0----------0-----0-----|--0-----0-----0-----0-----|--0----------0-----0-----|


                                                                              
----0-----0-----0--0-----|-----0----0-----0-----0--|-----0-----0-----0-------|
----3-----3-----3--3-----|-----3----3-----3-----3--|-----3-----3-----3-------|
----1-----1-----1--1-----|-----1----1-----1-----1--|-----1-----1-----1-------|
-------2-----2--------2--|--2----------------2-----|--2-----2-----2-----2----|
-------2-----2--------2--|--2----------------2-----|--2-----2-----2-----2----|
-------0-----0--------0--|--0----------0-----0-----|--0-----0-----0-----0----|


                                                                              
-----0----0-----0-----0--|----0-----0-----0--0-----|-----0----0-----0-----0--|
-----3----3-----3-----3--|----3-----3-----3--3-----|-----3----3-----3-----3--|
-----1----1-----1-----1--|----1-----1-----1--1-----|-----1----1-----1-----1--|
--2----------2-----2-----|-------2-----2--------2--|--2----------------2-----|
--2----------2-----2-----|-------2-----2--------2--|--2----------------2-----|
--0----------0-----0-----|-------0-----0--------0--|--0----------0-----0-----|


                                                                                
-----0-----0-----0-------|-----0-----0-----0-----0--|-----0-----0-----0-----0--|
-----3-----3-----3-------|-----3-----3-----3-----3--|-----3-----3-----3-----3--|
-----1-----1-----1-------|-----1-----1-----1-----1--|-----1-----1-----1-----1--|
--2-----2-----2-----2----|--2-----------2-----2-----|--2-----2-----2-----2-----|
--2-----2-----2-----2----|--2-----------2-----2-----|--2-----2-----2-----2-----|
--0-----0-----0-----0----|--0-----0-----0-----0-----|--0-----0-----0-----0-----|


                                                      
-----0-----0-----0-----0--|-----0-----0-----0-----0--|
-----3-----3-----3-----3--|-----3-----3-----3-----3--|
-----1-----1-----1-----1--|-----1-----1-----1-----1--|
--2-----2-----2-----2-----|--2-----2-----2-----2-----|
--2-----2-----2-----2-----|--2-----2-----------2-----|
--0-----0-----0-----0-----|--0-----0-----------0-----|


                                                      
-----0-----0-----0-----0--|-----0-----0-----0-----0--|
-----3-----3-----3-----3--|-----3-----3-----3-----3--|
-----1-----1-----1-----1--|-----1-----1-----1-----1--|
--2-----2-----2-----2-----|--2-----2-----2-----2-----|
--2-----2-----2-----2-----|--2-----2-----2-----2-----|
--0-----0-----0-----0-----|--0-----0-----0-----0-----|


                                                                             
-----0-----0-----0-----0--|----0-----2----0----0--|-----0----0-----0-----0--|
-----3-----3-----3-----3--|----3-----3----2----2--|-----3----3-----3-----3--|
-----1-----1-----1-----1--|----1-----2----2----2--|-----1----1-----1-----1--|
--2-----2-----2-----2-----|-------2---------------|--2----------2-----2-----|
--2-----2-----2-----2-----|-------2---------------|--2----------2-----2-----|
--0-----0-----0-----0-----|-------0---------------|--0----------0-----0-----|


                                                                          
----0-----2----0----0--|-----0----0-----0-----0--|----0-----2----0----0--|
----3-----3----2----2--|-----3----3-----3-----3--|----3-----3----2----2--|
----1-----2----2----2--|-----1----1-----1-----1--|----1-----2----2----2--|
-------2---------------|--2----------2-----2-----|-------2---------------|
-------2---------------|--2----------2-----2-----|-------2---------------|
-------0---------------|--0----------0-----0-----|-------0---------------|


                                                                            
-----0----0-----0--0--0--|-----0----2----0----0--|-------0-----0--0-----0--|
-----3----3-----3--3--3--|-----3----3----2----2--|-------3-----3--3-----3--|
-----1----1-----1--1--1--|-----1----2----2----2--|-------1-----1--1-----1--|
--2----------2-----------|--2--------------------|--2-------2--------2-----|
--2----------2-----------|-----------------------|--2-------2--------2-----|
--0----------0-----------|--0--------------------|--0-------0--------0-----|


                                                                             
----0-----2----0----0--|-------0-----0--0-----0--|-----0-----0-----0-----0--|
----3-----3----2----2--|-------3-----3--3-----3--|-----3-----3-----3-----3--|
----1-----2----2----2--|-------1-----1--1-----1--|-----1-----1-----1-----1--|
-------2---------------|--2-------2--------2-----|--2-----2-----2-----2-----|
-----------------------|--2-------2--------2-----|--2-----2-----2-----2-----|
-----------------------|--0-------0--------0-----|--0-----0-----0-----0-----|


                                                                              
-----0----0-----0-----0--|----0-----0-----0--0-----|-----0----0-----0-----0--|
-----3----3-----3-----3--|----3-----3-----3--3-----|-----3----3-----3-----3--|
-----1----1-----1-----1--|----1-----1-----1--1-----|-----1----1-----1-----1--|
--2----------2-----2-----|-------2-----2--------2--|--2----------------2-----|
-------------2-----2-----|-------2-----2--------2--|--2----------------2-----|
--0----------0-----0-----|-------0-----0--------0--|--0----------0-----0-----|


                                                                              
-----0-----0-----0-------|-----0----0-----0-----0--|----0-----0-----0--0-----|
-----3-----3-----3-------|-----3----3-----3-----3--|----3-----3-----3--3-----|
-----1-----1-----1-------|-----1----1-----1-----1--|----1-----1-----1--1-----|
--2-----2-----2-----2----|--2----------2-----2-----|-------2-----2--------2--|
--2-----2-----2-----2----|--2----------2-----2-----|-------2-----2--------2--|
--0-----0-----0-----0----|--0----------0-----0-----|-------0-----0--------0--|


                                                                       
-----0----0-----0-----0--|-----0-----0-----0-------|------------------|
-----3----3-----3-----3--|-----3-----3-----3-------|------------------|
-----1----1-----1-----1--|-----1-----1-----1-------|------------------|
--2----------------2-----|--2-----2-----2-----2----|------------------|
--2----------------2-----|--2-----2-----2-----2----|------------------|
--0----------0-----0-----|--0-----0-----0-----0----|------------------|


                                                                            
------------------|------------------|------------------|------------------|
------------------|------------------|------------------|------------------|
------------------|------------------|------------------|------------------|
------------------|------------------|------------------|------------------|
------------------|------------------|------------------|------------------|
------------------|------------------|------------------|------------------|


                                                                            
------------------|------------------|------------------|------------------|
------------------|------------------|------------------|------------------|
------------------|------------------|------------------|------------------|
------------------|------------------|------------------|------------------|
------------------|------------------|------------------|------------------|
------------------|------------------|------------------|------------------|


                                                                            
------------------|------------------|------------------|------------------|
------------------|------------------|------------------|------------------|
------------------|------------------|------------------|------------------|
------------------|------------------|------------------|------------------|
------------------|------------------|------------------|------------------|
------------------|------------------|------------------|------------------|


                    
------------------||
------------------||
------------------||
------------------||
------------------||
------------------||
  development and support by
dmitry ivanov