rock
 
|tablatures   |lyrics   |discussion forums   |more tabs @ XGuitar.com

Creedence Clearwater Revival tabs

Born On The Bayou Lead (lead guitar) guitar tab

                              Born on the bayou                                 


                                                    Creedence Clearwater Revival
Lead Guitar



                                                             
E||------------------|------------------|-------------------|
B||------------------|------------------|-------------------|
G||------------------|------------------|-------------------|
D||------------------|------------------|-------------------|
A||------------------|------------------|----------------2--|
E||------------------|------------------|-------------------|


                                                                             
--------0----------0-----|-------0----------0-----|--------0----------0-----|
-----------3----------3--|----------3----------3--|-----------3----------3--|
-----1----------1--------|----1----------1--------|-----1----------1--------|
--2----------------------|------------------------|--2----------------------|
-------------------------|------------------------|-------------------------|
-------------------------|------------------------|-------------------------|


                                                                            
-------0----------0-----|--------0----------0-----|-------0----------0-----|
----------3----------3--|-----------3----------3--|----------3----------3--|
----1----------1--------|-----1----------1--------|----1----------1--------|
------------------------|--2----------------------|------------------------|
------------------------|-------------------------|------------------------|
------------------------|-------------------------|------------------------|


                                                                              
--------0----------0-----|-------0----------0-----|--0-----0-----0--0-----0--|
-----------3----------3--|----------3----------3--|--3-----3-----3--3-----3--|
-----1----------1--------|----1----------1--------|--1-----1-----1--1-----1--|
--2----------------------|------------------------|--------------------------|
-------------------------|------------------------|--------------------------|
-------------------------|------------------------|-----0-----0--------0-----|


                                                                            
-----0----2----0-----0--|-------0-----0--0-----0--|-----0----2----2-----2--|
-----3----3----3-----3--|-------3-----3--3-----3--|-----3----3----3-----3--|
-----1----1----1-----1--|-------1-----1--1-----1--|-----1----1----1-----1--|
------------------------|-------------------------|------------------------|
------------------------|-------------------------|------------------------|
--0---------------0-----|--0-------0--------0-----|--0---------------0-----|


                                                                              
-----0-0------0-----0--0--|-----0----2----2-----0--|-------0-----0--0-----0--|
-----3-3------3-----3--3--|-----3----3----3-----3--|-------3-----3--3-----3--|
-----1-1------1-----1--1--|-----1----1----1-----1--|-------1-----1--1-----1--|
--------------------------|------------------------|-------------------------|
--------------------------|------------------------|-------------------------|
--0-------0------0--------|--0---------------0-----|--0-------0--------0-----|


                                                                              
-----0------------------|-----0--0-----0--0-----0--|-----0-----2----2--------|
-----3-----2----2-------|-----3--3-----3--3-----3--|-----3-----3----3-----3--|
-----1-----2----2-------|-----1--1-----1--1-----1--|-----1-----1----1-----1--|
------------------------|--------------------------|-------------------------|
------------------------|--------------------------|-------------------------|
--0-----0----------0----|--0--------0--------0-----|--0-----0----------0-----|


                                                                                
--0-----0-----0--0-----0--|-----0--------------------|--0----0-----0-----0--0--|
--3-----3-----3--3-----3--|-----3-----2-----2-----3--|--3----3-----3-----3--3--|
--1-----1-----1--1-----1--|-----1-----2-----2-----1--|--1----1-----1-----1--1--|
--------------------------|--------------------------|-------------------------|
--------------------------|--------------------------|-------------------------|
--0--0-----0--------0-----|--0-----0-----0-----0-----|----------0-----0--------|


                                                                              
-----0-----2----2-----2--|--------0-----0--0-----0--|-----0----2----2-----2--|
-----3-----3----3-----3--|--------3-----3--3-----3--|-----3----3----3-----3--|
-----1-----1----1-----1--|--------1-----1--1-----1--|-----1----1----1-----1--|
-------------------------|--------------------------|------------------------|
-------------------------|--------------------------|------------------------|
--0-----0----------0-----|--0--0-----0--------0-----|--0---------------0-----|


                                                                               
--0-----0-----0--0-----0--|----0-----2----2-----0--|-----0--0-----0-----0--0--|
--3-----3-----3--3-----3--|----3-----3----3-----3--|-----3--3-----3-----3--3--|
--1-----1-----1--1-----1--|----1-----1----1-----1--|-----1--1-----1-----1--1--|
--------------------------|------------------------|--------------------------|
--------------------------|------------------------|--------------------------|
-----0-----0--------0-----|-------0----------0-----|--0--------0-----0--------|


                                                                            
-----0-----2----0----0--|--0-----0-----0--0-----0--|----0----2----0-----0--|
-----3-----3----2----2--|--3-----3-----3--3-----3--|----3----3----2-----2--|
-----1--2--2----2----2--|--1-----1-----1--1-----1--|----1----2----2-----2--|
------------------------|--------------------------|-----------------------|
------------------------|--------------------------|-----------------------|
--0---------------------|-----0-----0--------0-----|-----------------0-----|


                                                                             
--0-----0-----0--0-----0--|---------0------------|--0-----0-----0-----0--0--|
--3-----3-----3--3-----3--|---------2----0-------|--------3-----3-----3--3--|
--1-----1-----1--1-----1--|---------2----0----1--|-----1--1-----1-----1--1--|
--------------------------|----------------------|--------------------------|
--------------------------|----------------------|--------------------------|
-----0-----0--------0-----|--0----------------0--|--0--------0-----0--------|


                                                                            
-----0--2------0-----0--|--0----0-----0-----0--0--|-----0----2----0-----0--|
-----3--3------2-----2--|--3----3-----3-----3--3--|-----3----3----2-----3--|
-----1--2------2-----2--|--1----1-----1-----1--1--|-----1----2----2-----1--|
------------------------|-------------------------|------------------------|
------------------------|-------------------------|------------------------|
--0---------------0-----|----------0-----0--------|--0---------------0-----|


                                                                        
--0----0-----0--0-----0--|-----0--0-----0-----0----|-------------------|
--3----3-----3--3-----3--|-----3--3-----3-----3----|-------------------|
--1----1-----1--1-----1--|-----1--1-----1-----1----|--2----------------|
-------------------------|-------------------------|-------------------|
-------------------------|-------------------------|-------------------|
----------0--------0-----|--0--------0-----0-------|-------------------|


                                                                             
--------------------------|------------------------|------------------------|
--------------------------|------------------------|------------------------|
--2--1--2--1--2--1--2--1--|--2---------------------|------------------------|
--------------------------|-----2----2----3--6-----|--7--6------------6--7--|
--------------------------|---------------7-----7--|----------7----7--------|
--------------------------|------------------------|------------------------|


                                                                        
----------------------|-----------------------|------------------------|
--0----3----0---------|--0----3----0----------|------------------------|
-----------------2----|--------------2--------|------2--1--2--1--2--1--|
----------------------|------------------2----|------------------------|
----------------------|-----------------------|------------------------|
----------------------|-----------------------|------------------------|


                                                                    
----------------------|--4----4----4----4--4--|------4--4----------|
----------------------|--5----5----5----5--5--|------5--5----------|
--2--1----------------|--4----4----4----4--4--|------4--4----------|
--------2--2----------|-----------------------|--------------------|
----------------------|-----------------------|--------------------|
----------------------|-----------------------|--------------------|


                                                                     
--4----4----4----4----|--4------------------|--4----4----4----4--4--|
--5----5----5----5----|--5------------------|--5----5----5----5--5--|
--4----4----4----4----|--4--4----4----------|--4----4----4----4--4--|
----------------------|-----2----2----------|-----------------------|
----------------------|---------------------|-----------------------|
----------------------|---------------------|-----------------------|


                                                                    
--4----4--4----------|--2----2----0--0----0--|----4----2----0------|
--5----5--5----------|--3----3----2--2----0--|----5----3-----------|
--4----4--4----------|--2----2----2--2----1--|---------------------|
---------------------|-----------------------|---------------------|
---------------------|-----------------------|---------------------|
---------------------|-----------------------|---------------------|


                                                                      
--2----2----0----0--0--|----4----2----0------|--2----2----0--0----0--|
--3----3----2----2--0--|----5----------------|--3----3----2--2----0--|
--2----2----2----2--1--|---------------------|--2----2----2--2----1--|
-----------------------|---------------------|-----------------------|
-----------------------|---------------------|-----------------------|
-----------------------|---------------------|-----------------------|


                                                                 
----4----2----0------|-----------------------|------------------|
----5----------------|--3----3----2--2----0--|------------------|
---------------------|--2----2----2--2----1--|------------------|
---------------------|-----------------------|------------------|
---------------------|-----------------------|------------------|
---------------------|-----------------------|------------------|


                                                                     
----------------------|----------------------|----------------------|
----------------------|----------------------|----------------------|
----------------------|----------------------|----------------------|
--2-----------2-------|----------------2-----|--2-----------2-------|
-----------4----------|----------2--4-----4--|-----------4----------|
-------------------0--|----------------------|-------------------0--|


                                                                     
----------------------|----------------------|----------------------|
----------------------|----------------------|----------------------|
----------------------|----------------------|----------------------|
----------------2-----|--2-----------2-------|----------------2-----|
----------2--4-----4--|-----------4----------|----------2--4-----4--|
----------------------|-------------------0--|----------------------|


                                                                       
----------------------|---------------------|--------0----------0-----|
----------------------|---------------------|-----------3----------3--|
----------------------|---------------------|-----1----------1--------|
--2-----------2-------|----------------2----|--2----------------------|
-----------4----------|----------2--4-------|-------------------------|
-------------------0--|---------------------|-------------------------|


                                                                           
-------0----------0-----|-------0----------0-----|-------0----------0-----|
----------3----------3--|----------3----------3--|----------3----------3--|
----1----------1--------|----1----------1--------|----1----------1--------|
------------------------|------------------------|------------------------|
------------------------|------------------------|------------------------|
------------------------|------------------------|------------------------|


                                                                              
--0-----0-----0--0-----0--|-----0----2----0-----0--|-------0-----0--0-----0--|
--3-----3-----3--3-----3--|-----3----3----3-----3--|-------3-----3--3-----3--|
--1-----1-----1--1-----1--|-----1----1----1-----1--|-------1-----1--1-----1--|
--------------------------|------------------------|-------------------------|
--------------------------|------------------------|-------------------------|
-----0-----0--------0-----|--0---------------0-----|--0-------0--------0-----|


                                                                             
-----0----2----2-----2--|-----0--0-----0-----0--0--|-----0----2----2-----0--|
-----3----3----3-----3--|-----3--3-----3-----3--3--|-----3----3----3-----3--|
-----1----1----1-----1--|-----1--1-----1-----1--1--|-----1----1----1-----1--|
------------------------|--------------------------|------------------------|
------------------------|--------------------------|------------------------|
--0---------------0-----|--0--------0-----0--------|--0---------------0-----|


                                                                              
-------0-----0--0-----0--|-----0------------------|-----0--0-----0--0-----0--|
-------3-----3--3-----3--|-----3-----2----2-------|-----3--3-----3--3-----3--|
-------1-----1--1-----1--|-----1-----2----2-------|-----1--1-----1--1-----1--|
-------------------------|------------------------|--------------------------|
-------------------------|------------------------|--------------------------|
--0-------0--------0-----|--0-----0----------0----|--0--------0--------0-----|


                                                                                
-----0-----2----2--------|--0-----0-----0--0-----0--|-----0--------------------|
-----3-----3----3-----3--|--3-----3-----3--3-----3--|-----3-----2-----2-----3--|
-----1-----1----1-----1--|--1-----1-----1--1-----1--|-----1-----2-----2-----1--|
-------------------------|--------------------------|--------------------------|
-------------------------|--------------------------|--------------------------|
--0-----0----------0-----|--0--0-----0--------0-----|--0-----0-----0-----0-----|


                                                                               
--0----0-----0-----0--0--|-----0-----2----2-----2-0-|-------0-----0--0-----0--|
--3----3-----3-----3--3--|-----3-----3----3-----3---|-------3-----3--3-----3--|
--1----1-----1-----1--1--|-----1-----1----1-----1---|-------1-----1--1-----1--|
-------------------------|--------------------------|-------------------------|
-------------------------|--------------------------|-------------------------|
----------0-----0--------|--0-----0----------0------|----0-----0--------0-----|


                                                                       
-----0----2----2-----2--|----------------------|----------------------|
-----3----3----3-----3--|----------------------|----------------------|
-----1----1----1-----1--|----------------------|----------------------|
------------------------|--2-----------2-------|----------------2-----|
------------------------|-----------4----------|----------2--4-----4--|
--0---------------0-----|-------------------0--|----------------------|


                                                                     
----------------------|----------------------|----------------------|
----------------------|----------------------|----------------------|
----------------------|----------------------|----------------------|
--2-----------2-------|----------------2-----|--2-----------2-------|
-----------4----------|----------2--4-----4--|-----------4----------|
-------------------0--|----------------------|-------------------0--|


                                                                     
----------------------|----------------------|----------------------|
----------------------|----------------------|----------------------|
----------------------|----------------------|----------------------|
----------------2-----|--2-----------2-------|----------------2-----|
----------2--4-----4--|-----------4----------|----------2--4-----4--|
----------------------|-------------------0--|----------------------|


                                                                     
----------------------|----------------------|----------------------|
----------------------|----------------------|----------------------|
----------------------|----------------------|----------------------|
--2-----------2-------|----------------2-----|--2-----------2-------|
-----------4----------|----------2--4-----4--|-----------4----------|
-------------------0--|----------------------|-------------------0--|


                                                                     
----------------------|----------------------|----------------------|
----------------------|----------------------|----------------------|
----------------------|----------------------|----------------------|
----------------2-----|--2-----------2-------|----------------2-----|
----------2--4-----4--|-----------4----------|----------2--4-----4--|
----------------------|-------------------0--|----------------------|


                                                              
--2----2----0--0-------|------------------|------------------|
--3----3----2--2-------|------------------|------------------|
--2----2----2--2-------|------------------|------------------|
--------------------2--|------------------|------------------|
-----------------------|------------------|------------------|
--------------------0--|------------------|------------------|


                                                                             
-------------------|------------------|------------------|------------------|
-------------------|------------------|------------------|------------------|
-------------------|------------------|------------------|------------------|
--2----------------|------------------|------------------|------------------|
-------------------|------------------|------------------|------------------|
-------------------|------------------|------------------|------------------|


                                                                             
--------0----------0-----|-------0----------0-----|--------0----------0-----|
-----------3----------3--|----------3----------3--|-----------3----------3--|
-----1----------1--------|----1----------1--------|-----1----------1--------|
--2----------------------|------------------------|--2----------------------|
-------------------------|------------------------|-------------------------|
-------------------------|------------------------|-------------------------|


                                                                            
-------0----------0-----|--------0----------0-----|-------0----------0-----|
----------3----------3--|-----------3----------3--|----------3----------3--|
----1----------1--------|-----1----------1--------|----1----------1--------|
------------------------|--2----------------------|------------------------|
------------------------|-------------------------|------------------------|
------------------------|-------------------------|------------------------|


                                                                             
--------0----------0-----|-------0----------0-----|--0----0-----0-----0--0--|
-----------3----------3--|----------3----------3--|--3----3-----3-----3--3--|
-----1----------1--------|----1----------1--------|--1----1-----1-----1--1--|
--2----------------------|------------------------|-------------------------|
-------------------------|------------------------|-------------------------|
-------------------------|------------------------|----------0-----0--------|


                                                                              
-----0-----2----2-----2-0-|-------0-----0--0-----0--|-----0----2----2-----2--|
-----3-----3----3-----3---|-------3-----3--3-----3--|-----3----3----3-----3--|
-----1-----1----1-----1---|-------1-----1--1-----1--|-----1----1----1-----1--|
--------------------------|-------------------------|------------------------|
--------------------------|-------------------------|------------------------|
--0-----0----------0------|----0-----0--------0-----|--0---------------0-----|


                                                                               
--0-----0-----0--0-----0--|----0-----2----2-----0--|-----0--0-----0-----0--0--|
--3-----3-----3--3-----3--|----3-----3----3-----3--|-----3--3-----3-----3--3--|
--1-----1-----1--1-----1--|----1-----1----1-----1--|-----1--1-----1-----1--1--|
--------------------------|------------------------|--------------------------|
--------------------------|------------------------|--------------------------|
-----0-----0--------0-----|-------0----------0-----|--0--------0-----0--------|


                                                                            
-----0-----2----0----0--|--0-----0-----0--0-----0--|----0----2----0-----0--|
-----3-----3----2----2--|--3-----3-----3--3-----3--|----3----3----2-----2--|
-----1--2--2----2----2--|--1-----1-----1--1-----1--|----1----2----2-----2--|
------------------------|--------------------------|-----------------------|
------------------------|--------------------------|-----------------------|
--0---------------------|-----0-----0--------0-----|-----------------0-----|


                                                                             
--0-----0-----0--0-----0--|---------0------------|--0-----0-----0-----0--0--|
--3-----3-----3--3-----3--|---------2--0---------|--------3-----3-----3--3--|
--1-----1-----1--1-----1--|---------2--0------1--|-----1--1-----1-----1--1--|
--------------------------|----------------------|--------------------------|
--------------------------|----------------------|--------------------------|
-----0-----0--------0-----|--0----------------0--|--0--------0-----0--------|


                                                                            
-----0--2------0-----0--|--0----0-----0-----0--0--|-----0----2----0-----0--|
-----3--3------2-----2--|--3----3-----3-----3--3--|-----3----3----2-----3--|
-----1--2------2-----2--|--1----1-----1-----1--1--|-----1----2----2-----1--|
------------------------|-------------------------|------------------------|
------------------------|-------------------------|------------------------|
--0---------------0-----|----------0-----0--------|--0---------------0-----|


                                                                              
--0----0-----0--0-----0--|-----0--0-----0-----0----|--------0----------0-----|
--3----3-----3--3-----3--|-----3--3-----3-----3----|-----------3----------3--|
--1----1-----1--1-----1--|-----1--1-----1-----1----|-----1----------1--------|
-------------------------|-------------------------|--2----------------------|
-------------------------|-------------------------|-------------------------|
----------0--------0-----|--0--------0-----0-------|-------------------------|


                                                                            
-------0----------0-----|--------0----------0-----|-------0----------0-----|
----------3----------3--|-----------3----------3--|----------3----------3--|
----1----------1--------|-----1----------1--------|----1----------1--------|
------------------------|--2----------------------|------------------------|
------------------------|-------------------------|------------------------|
------------------------|-------------------------|------------------------|


                                                                             
--------0----------0-----|-------0----------0-----|--------0----------0-----|
-----------3----------3--|----------3----------3--|-----------3----------3--|
-----1----------1--------|----1----------1--------|-----1----------1--------|
--2----------------------|------------------------|--2----------------------|
-------------------------|------------------------|-------------------------|
-------------------------|------------------------|-------------------------|


                                                                
-------0----------0-----|--0----------------|------------------|
----------3----------3--|--3----------------|------------------|
----1----------1--------|--1----------------|------------------|
------------------------|-------------------|------------------|
------------------------|-------------------|------------------|
------------------------|-------------------|------------------|


                                                                            
------------------|------------------|------------------|------------------|
------------------|------------------|------------------|------------------|
------------------|------------------|------------------|------------------|
------------------|------------------|------------------|------------------|
------------------|------------------|------------------|------------------|
------------------|------------------|------------------|------------------|


                                                                            
------------------|------------------|------------------|------------------|
------------------|------------------|------------------|------------------|
------------------|------------------|------------------|------------------|
------------------|------------------|------------------|------------------|
------------------|------------------|------------------|------------------|
------------------|------------------|------------------|------------------|


                                                                             
------------------|------------------|------------------|------------------||
------------------|------------------|------------------|------------------||
------------------|------------------|------------------|------------------||
------------------|------------------|------------------|------------------||
------------------|------------------|------------------|------------------||
------------------|------------------|------------------|------------------||
  development and support by
dmitry ivanov