rock
 
|tablatures   |lyrics   |discussion forums   |more tabs @ XGuitar.com

Creedence Clearwater Revival tabs

Born On The Bayou bass tab

BORN ON A BAYOU
BY CCR
TABBED BY JAMES RYAN
NEO@FLOODCITY.NET


VERSE
G |----------------------------|
D |----------------------------|
A |-7---------7-7---------7----|
E |---7-9-7-9-----7-9-7-9------|

FILL USED IN VERSE
G |-----------------|
D |----6---7-8-9----|
A |--7---7----------|
E |-----------------|

CHORUS
G |----------------------------|
D |----------------------------|
A |-7-7---------7-7---5--------|
E |-----7-9-7-9-----------5----|

SOLO
G |----------------------------|
D |----------------------------|
A |-7---------7-7---------7----|
E |---7-9-7-9-----7-9-7-9------|

G |---------------------------|
D |---------------------------|
A |-7----------5-5------------|
E |---7-9-7-9-------5-5-------|

G |------------------|
D |----6---7-8-9-9---|
A |--7---7-----------|
E |------------------|x2

G |---------------------------|
D |-7-7-6-7-6-7---------------|
A |-------------7-7-----------|
E |---------------------------|

FILL COMING OUT OF 2nd SOLO
G |--------------------------------------|
D |----6---7-8-9-------------------------|
A |--7---7--------2-2--4-4--5-5--6-6-----|
E |--------------------------------------|


THATS ALL !
  development and support by
dmitry ivanov