rock
 
|tablatures   |lyrics   |discussion forums   |more tabs @ XGuitar.com

Creedence Clearwater Revival tabs

Bad Moon Rising guitar chords

CCR - "Bad Moon Rising"

Words/Music By : John Fogerty
--------------------------------------------
Tabbed By: Jaakko Pimperi (jakep83@yahoo.com)
27.5.1999 V1.0

Chords: E    e
D       xx0232
A       x02220
G       320003
D6      xx0432
G6      xx2003

Intro/Rhy. Fig1: 
----------------        
4/4  D                      A         G           D          D6  D
e-|--2---2-------2---2---|------0----------3---|--2---2----2--2--2--|
B-|--3---3-------3---3---|------2----------0---|--3---3----3--3--3--|
G-|--2---2-------2---2---|--2---2----------0---|--2---2----2--4--2--|
D-|--0---0-------0---0---|--2---2-----0----0---|--0---0----0--0-----|
A-|----------------------|--0---------2--------|--------------------|
E-|----------------------|------------3--------|--------------------|

       D6  D     D6
-(2)-2--2--2-2-2-2--|
-(3)-3--3--3-3-3-3--|
-(2)-2--4--2-2-2-2--|
--------0--------4--|
--------------------|
--------------------|

Verse1: (w/rhy.fig 4 times)
------
D       A   G     D      D6 D   D6 D   D6  
I see ....
D     A       G       D  D6 D   D6 D   D6  

       A     G              D   D6 D   D6 D   D6  

       A   G      D      D6 D   D6 D   D6  


Chorus:
-------
  G             G6  G    G6  G        G6    D                D6  D  D6
Don't go round tonite ......
  A          G              D     D6  D    D6  D    D6
There's .....

Verse2

[Repeat Chorus]

Guitar Solo: (just improvise in D major (or B minor)


Verse3

[Repeat Chorus Twice, End on D]

Questions, comments, corrections, requests etc. to jakep83@yahoo.com
  development and support by
dmitry ivanov