rock
 
|tablatures   |lyrics   |discussion forums   |more tabs @ XGuitar.com

Creedence Clearwater Revival tabs

Bad Moon Rising bass tab

Song Title: Bad Moon Rising
Artist: Creedence Clearwater Revival
----------------------------------------------

Creedence Clearwater Revival - "Bad Moon Rising" - Bass Tab

Intro:
|---------|---------|---------|---------|
|---------|---------|---------|---------|
|---------|---------|-5---5---|-5---5---|
|-r-r-r-r-|-r-r-r-r-|---------|---------|
  1 2 3 4   1 2 3 4   1 2 3 4   1 2 3 4

Verse:
|----------|---------|---------|----------|
|*---------|---------|---------|---------*|
|*-5---5---|---------|-5---5---|-5---5---*|
|----------|-5---3---|---------|----------|
   1 2 3 4   1 2 3 4   1 2 3 4   1 2 3 4

Chorus:
|---------|---------|---------|---------|---------|---------|
|---------|---------|---------|---------|---------|---------|
|---------|---------|-5---5---|-5---5---|---------|---------|
|-3---3---|-3---3---|---------|---------|-5---5---|-3---3---|
  1 2 3 4   1 2 3 4   1 2 3 4   1 2 3 4   1 2 3 4   1 2 3 4

|---------|---------|
|---------|---------|
|-5---5---|-5---5---|
|---------|---------|
  1 2 3 4   1 2 3 4

Song Structure:
Intro
Verse(x4)
Chorus(x1)
Verse(x4)
Chorus(x1)
Solo: Verse(x2) Chorus(x1)
Verse(x4)
Chorus(x2)


Submitted by:  Johari Taylor (viking@powerup.com.au)
  development and support by
dmitry ivanov