rock
 
|tablatures   |lyrics   |discussion forums   |more tabs @ XGuitar.com

Blink_182 tabs

What's My Age Again? guitar tab

WHAT'S MY AGE AGAIN?- Blink 182

tabbed by yannenater1@aol.com

CHORDS

  F# C# D# B      =20
|--------------|
|--------------|
|----6--8--4---|
|-4--6--8--4---|
|-4--4--6--2---|
|-2------------|

LEAD RIFF=20
|----------------------------------------------|
|------11----------11---------11---------11----|
|---11----11----11----11---11----11---11----11-|
|-9--------------------------------------------|
|-------------9--------------------------------|
|------------------------9---------11----------|

BASS RIFF=20
|--------------|
|--------------|
|-222---444666-|
|----444-------|

CHORUS
|-----------------|
|-----------------|
|----66--88--4444-|
|-4--66--88--4444-|
|-4--44--66--2222-|
|-2---------------|

CHORUS #2
|---------------------------|
|---------------------------|
|----66--88888888-666666666-|
|-4--66--88888888-666666666-|
|-4--44--66666666-444444444-|
|-2---------------- ---------|

MUTED RIFF
|----------------------|
|----------------------|
|-4444------6666-8888--|
|-4444-6666-6666-8888--|
|-2222-6666-4444-6666--|
|------4444------------|

SOLO RIFF #1
|----------------------------------|
|---11-----11---------11-----11----|
|------11-----11---------11-----11-|
|------------------9---------------|
|----------------------------------|
|----------------------------------|

SOLO RIFF #2
|---------|
|---------|
|---------|
|-----8H9-|
|-999-----|
|---------|

SOLO RIFF #3
|-------------------|
|-------------------|
|-------11----------|
|---8----------8----|
|-9---9----9-9------|
|-------------------|
  development and support by
dmitry ivanov