rock
 
|tablatures   |lyrics   |discussion forums   |more tabs @ XGuitar.com

Blink_182 tabs

Wasting Time bass tab

Band: blink 182
Song: Wasting Time
Album: Cheshire Cat

Intro/Chorus:
G:-----------------------------------------------------
D:-----------------------------------------------------
A:-----------------------------------------------------
E:-5-5-5-5--0-0-0-0-0-0-0-0--9-9-9-9-9--7-7-7-7-7-7-7--
Pre-Verse
G:--------------------------------------------------------------------
D:--------------------------------------------------------------------
A:--------------------------------------------------------------------
E:-5-5-5-5--0-0-0-0-0-0-0-0---9-9-9-9-9-9-9-9-9-9--7-7-7-7-7-7-7-7-7--

G:--------------------
D:--------------------
A:--------------------
E:-5-5-5-5-5-5-5-5-5--

Verse:
G:--------------------------------------------------------------------
D:--------------------------------------------------------------------
A:--------------------------------------------------------------------
E:--0-0-0-0-0-0-0-0--5-5-5-5-5-5-5-5--9-9-9-9-9-9-9-9--7-7-7-7-7-7-7-7

That's all there is to the song...
TAB Matt Nielsen zorg500@hotmail.com
  development and support by
dmitry ivanov