rock
 
|tablatures   |lyrics   |discussion forums   |more tabs @ XGuitar.com

Blink_182 tabs

Waggy bass tab

Band: blink 182
Song: Waggy
Album: Dude Ranch

~ means to let the note ring

Intro/Verse/Bridge
G:--------------------------------------------------------------
D:--------------------------4-4-4-4-4-4-4-4---------------------
A:-0-0-0-0-0-0-0-0-0-0-0-0--------------------5-5-5-5-5-5-5-5---
E:--------------------------------------------------------------

Chorus:
G:--------------------------------------------------------------------
D:--------------------------------------------------------------------
A:---------5-5-5-5--2-2-2-2-2-2-2-2---------5-5-5-5--0-0-0-0-0-0-0-0--
E:-2-2-2-2--------------------------2-2-2-2---------------------------

Outro:
G:---------------------
D:---------------------
A:-0~---2~---5~---0~---
E:---------------------

Easy song...
TAB: Matt Nielsen zorg500@hotmail.com
  development and support by
dmitry ivanov