rock
 
|tablatures   |lyrics   |discussion forums   |more tabs @ XGuitar.com

Blink_182 tabs

Voyeur bass tab

Band: blink 182
Song: Voyeur
Album: Dude Ranch, The Mark, Tom, and Travis Show

Intro riff:(before verse)
G:------------
D:------------
A:----10-8-7--
E:--8---------

Verse:
G:-------------------------------------
D:-------------------------------------
A:-3-3-3-3-3-3-3-3---------------------
E:-----------------5-5-5-5--1-1-1-1-1--

Chorus:
G:--------------------------------------------------------------------
D:----------------------------3---------------------------------------
A:--------------------3-3-3-3---3-3-3-3---------------------3-3-3-3---
E:--3-3-3-3--1-1-1-1--------------------3--3-3-3-3--1-1-1-1--------3-3

Bridge:(I'll bet this last time's...)
G:------------------------------------
D:---------------------------3-3-3-3--
A:-3-3-3-3----------------------------
E:---------3-3-3-3--5-5-5-5-----------

Bass solo:
G:-------------------------------------------------------------------
D:-------------------------------------------------------------------
A:-8-8-8-------10-10-10--8-8-8----10--8-8-8-------10-10-10--8-8-8----
E:-------8-8-8-----------------8------------8-8-8-----------------8--

TAB: Matt Nielsen zorg500@hotmail.com
  development and support by
dmitry ivanov