rock
 
|tablatures   |lyrics   |discussion forums   |more tabs @ XGuitar.com

Blink_182 tabs

Violence guitar tab

Band: blink 182
Song: Violence
Album: blink 182
Tabbed by Glenn Murphy a.k.a reckless

All the other tabs were quite good but some of them had bits missing, none of them included the bend notes in the intro and none of the bridge parts were 100% correct. So Iím gonna be brave and say my interpretation of the bridge is the best and that this is the most accurate tab overall. Here goes:

Intro

E ----------------------------------------------
A ----------------------------------------------
G ----------------------------------------------
D ---------------------------9-9-9-9-9----------
A ---------------------------9-9-9-9-9----------
E --7b-7b-7b-7b-7b-7b-7b-7b--7-7-7-7-7----------

(bend E string up an down to give a rattling effect)


Intro Part 2

E ---------------------------------------------------------------------
A ---------------------------------------------------------------------
G -4-4-4-4-4-4-4-4--6-6-6-6-6-6-6-6------------------------------------
D -4-4-4-4-4-4-4-4--6-6-6-6-6-6-6-6--6-6-6-6-6-6-6-6--8-8-8-8-8-8-8-8--
A -2-2-2-2-2-2-2-2--4-4-4-4-4-4-4-4--6-6-6-6-6-6-6-6--8-8-8-8-8-8-8-8--
E -----------------------------------4-4-4-4-4-4-4-4--6-6-6-6-6-6-6-6--

Verse

(Played on bass but you can play it on guitar if you want)

E ------------------------------
A ------------------------------
G ------------------------------
D -------------1-(let ring)-----
A -2-(let ring)-------------1---
E ------------------------------


Chorus

E ---------------------------------------------------------------------
A ---------------------------------------------------------------------
G -4-4-4-4-4-4-4-4--6-6-6-6-6-6-6-6------------------------------------
D -4-4-4-4-4-4-4-4--6-6-6-6-6-6-6-6--6-6-6-6-6-6-6-6--8-8-8-8-8-8-8-8--
A -2-2-2-2-2-2-2-2--4-4-4-4-4-4-4-4--6-6-6-6-6-6-6-6--8-8-8-8-8-8-8-8--
E -----------------------------------4-4-4-4-4-4-4-4--6-6-6-6-6-6-6-6--

Bridge (2 guitars)

Guitar 1

E ---------------------------------------------------------------
A ---------------------------------------------------------------
G ---------------------------------------------------------------
D -----8-----8----8-------6---6--------4-----4---4--------4---4--
A -6-6---6-6----6-----4-4---4-----1-1----1-1---1------2-2---2----
E ---------------------------------------------------------------

Guitar 2

E --------------------------------------------------------------
A --------------------------------------------------------------
G --------------------------------------------------------------
D --------------------------------------------------------------
A ---4-(let-ring)-----------------4-(let-ring)------------------
E --------------------------------------------------------------

Outro
E ---------------------------------------------------------------------
A ---------------------------------------------------------------------
G -4-4-4-4-4-4-4-4--6-6-6-6-6-6-6-6------------------------------------
D -4-4-4-4-4-4-4-4--6-6-6-6-6-6-6-6--6-6-6-6-6-6-6-6--8-8-8-8-8-8-8-8--
A -2-2-2-2-2-2-2-2--4-4-4-4-4-4-4-4--6-6-6-6-6-6-6-6--8-8-8-8-8-8-8-8--
E -----------------------------------4-4-4-4-4-4-4-4--6-6-6-6-6-6-6-6--

Outro part 2

E -------------------------------
A -------------------------------
G -------------------------------
D -------------------------------
A -------------------------------
E --7b-7b-7b-7b-7b-7b-7b-7b------ bend then fade out

Thatís it. A very cool song.
Please rate.
  development and support by
dmitry ivanov