rock
 
|tablatures   |lyrics   |discussion forums   |more tabs @ XGuitar.com

Blink_182 tabs

Untitled bass tab

Band: blink 182
Song: Untitled
Album: Dude Ranch

I kinda messed up on my last tab,but here's the right one

Intro:
G:-----------------------------------------------------
D:-----------------------------------------------------
A:-----------------------------------------------------
E:-7-7-7-7-7--7-7-7-7-7-7-7--0-0-0-0-0--2-2-2-2-2-2-2--

Verse:
G:-----------------------------------
D:-----------------------------------
A:-2-2-2-2-2-2-2-2-------------------
E:-----------------0-0-0-0--2-2-2-2--

Chorus:
G:--------------------------------------------------------------
D:--------------------------------------------------------------
A:-2-2-2-2-2-2/6/7-7-7-7-7-7-7-7--2-2-2-2-2-2/6-4-4-4-4-4-4-4---
E:--------------------------------------------------------------

That's most of it...
TAB: Matt Nielsen  zorg500@hotmail.com
  development and support by
dmitry ivanov