rock
 
|tablatures   |lyrics   |discussion forums   |more tabs @ XGuitar.com

Blink_182 tabs

TV guitar tab

Artist: Blink 182 
Song: TV 
Ablum: Cheshire Cat
Tabbed By : Rishesh Singh (XtremeDimoN@icqmail.com) 

Intro: 
e|-----------------------------------------------------------------------| 
B|-----------------------------------------------------------------------| 
G|-----------------------------------------------------------------------| 
D|-----------------------3-----3---3-------------------------3-----3---3-|x2 
A|-----3-----3---3-/-1-1---1-1---1---/-----3-----3---3-/-1-1---1-1---1---| 
E|-1-1---1-1---1---/-----------------/-1-1---1-1---1---/-----------------|                                                                

e|----------------------------------------------------------------------------| 
B|----------------------------------------------------------------------------| 
G|----------------------------------------------------------------------------| 
D|-----------------------3-----3---3--------10-----10---10--------3-----3---3-| 
A|-----3-----3---3-/-1-1---1-1---1---/--8-8----8-8----8-----/-1-1---1-1---1---| 
E|-1-1---1-1---1---/-----------------/----------------------/-----------------| 

e|-----------------------------------------------------------------------| 
B|-----------------------------------------------------------------------| 
G|-------------------------------------------------------------------3-3-| 
D|-----------3-3-3-3-------------3-3-3-3-------------3-3-3-3---------3-3-| 
A|-3-3-3-3-/-1-1-1-1-/-3-3-3-3-/-1-1-1-1-/-3-3-3-3-/-1-1-1-1-/-5-5-/-1-1-| 
E|-1-1-1-1-/---------/-5-5-5-5-/---------/-1-1-1-1-/---------/-3-3-/-----| 

Distortion kicks in.... 
e|----------------------------------| 
B|----------------------------------| 
G|------------------3-3-3-3-3-3-3-3-| 
D|-3-3-3-3-3-3-3-3--3-3-3-3-3-3-3-3-|x4 
A|-3-3-3-3-3-3-3-3--1-1-1-1-1-1-1-1-| 
E|-1-1-1-1-1-1-1-1------------------| 
   
e|------------------------------------| 
B|------------------------------------| 
G|------------------------------------| 
D|-3-3-3-3--5-5-5-5--7-7-7-7--8-8-8-8-| 
A|-3-3-3-3--5-5-5-5--7-7-7-7--8-8-8-8-| 
E|-1-1-1-1--3-3-3-3--5-5-5-5--6-6-6-6-| 

Verse: 
e|--------------------------| 
B|--------------------------| 
G|--------------3-3-3-3-1-0-| 
D|-3-3-3-3-1-0--3-3-3-------|x4 
A|-3-3-3--------1-1-1-------| 
E|-1-1-1--------------------| 
pm ...    ... 

Chorus: 
e|-----------------------------------------------| 
B|----------------------6-4-3--------------------| 
G|------------3-3-3-3-3-------------------3-3-3/-| 
D|-3-3-3-3-3--3-3-3-3-3--------3-3-3-3-3--3-3-3/-| 
A|-3-3-3-3-3--1-1-1-1-1--------3-3-3-3-3--1-1-1/-| 
E|-1-1-1-1-1-------------------1-1-1-1-1---------| 

Solo: 
e|-----------------------------------------------------| 
B|-----------------------------------------------------| 
G|-----5-----5-----6-9-7------4-7-5------7-5-0-0-------| 
D|-----------------------------------------------7-5-0-|x2 
A|-3-3---3-3---6-6--------0-0--------0-0---------------| 
E|-----------------------------------------------------| 
pm ...   ...   ...        ...        ... 
  development and support by
dmitry ivanov