rock
 
|tablatures   |lyrics   |discussion forums   |more tabs @ XGuitar.com

Blink_182 tabs

TV bass tab

-------------------------------------------------------------------------------
			     TV - Blink 182
-------------------------------------------------------------------------------

Album: Buddah, Cheshire Cat

Tuning: Standard

Intro:
G|----5---5--5-----/10---10---10----5---5--5-----/10---10----10--------------|
D|-33---33--3---/88----88----8---33---33--3---/88----88----88----------------|
A|---------------------------------------------------------------------------|
E|---------------------------------------------------------------------------|

Cont:
G|----5---5---5----/10----10--10-------/17------17---17----------------------|
D|-33---33--3---/88----88----8---/15-15---15-15----15------------------------|
A|---------------------------------------------------------------------------|
E|---------------------------------------------------------------------------|

Cont:
G|------3333-0000-3333------3333-0000-3333----------33333333---------33333333|
D|-3333----------------3333----------------33333333----------3333333---------|
A|---------------------------------------------------------------------------|
E|---------------------------------------------------------------------------|

Cont:
G|------3333-0000-5555------3333-0000-5555--------|
D|-3333----------------3333-----------------------|
A|------------------------------------------------|
E|------------------------------------------------|

Verse:
G|----3>------------------------------------------|
D|-3>---------------------------------------------|
A|------------------------------------------------|
E|------------------------------------------------|

Chorus:
G|------3333-0000-5555------3333-0000-5555--------|
D|-3333----------------3333-----------------------|
A|------------------------------------------------|
E|------------------------------------------------|


By: Zirconium
  development and support by
dmitry ivanov