rock
 
|tablatures   |lyrics   |discussion forums   |more tabs @ XGuitar.com

Blink_182 tabs

Touchdown Boy guitar tab

Artist: Blink 182 
Song: Touchdown Boy 
Album: Cheshire Cat
Tabbed By : Rishesh Singh (XtremeDimon@icqmail.com) 

Intro: [Strumming Not Shown] 
E|-------------------------------------------------------------------------|
B|-------------------------------------------------------------------------|
G|-9-9-8---------9-8-----------9-------------------------------------------|
D|-9-9-8-9-7-6-2-9-8-9-7-6-2---9--6-7-9--11--6-7-9--9--6-7-9--7--6-7-9-----|
A|-7-7-6-9-7-6-2-7-6-9-7-6-2---7---------11---------9---------7------------|
E|-------7-5-4-0-----7-5-4-0-------------9----------7---------5------------|

E|-------------------------------------------------------------------------|
B|-------------------------------------------------------------------------|
G|-9-----------------------------9----9-----------------------------9------|
D|-9--9-7-6--9--9-7-6--7--6-7-6--9----9--9-7-6--9--9-7-6--7--6-7-6--9------|
A|-7---------9---------7---------7----7---------9---------7---------7------|
E|-----------7---------5------------------------7---------5----------------|

E|-------------------------------------------------------------------------| 
B|-------------------------------------------------------------------------|
G|-------------------------------------------------------------------------|
D|---9-----9-----7---7-----7-----9-----9-----7---7-----7-------------------|
A|-7---7-7---7-7---7---7-7---7-7---7-7---7-7---7---7-7---7-----------------|
E|-------------------------------------------------------------------------|

E-|------------------------------------------------------------------------| 
B-|------------------------------------------------------------------------| 
G-|------------------------------------------------------------------------| 
D-|---9-----9-----7---7-----7----9-----------------------------------------| 
A-|-7---7-7---7-7---7---7-7---7--9-----------------------------------------| 
E-|------------------------------7-----------------------------------------| 

Verse: 

E|------------------------------------------------| 
B|------------------------------------------------|
G|-9-------------11-------------------------------|
D|-9-------------11-------------9-------------7---|
A|-7-------------9--------------9-------------7---|
E|------------------------------7-------------5---|

Chorus: 

E|----------------------------------------------------------|
B|----------------------------------------------------------| 
G|-9--------------------------------------------------------| 
D|-9-9-7-2--------------------------------------------------| 
A|-7-9-7-2--------------------------------------------------|
E|---7-5-0--------------------------------------------------|
  development and support by
dmitry ivanov