rock
 
|tablatures   |lyrics   |discussion forums   |more tabs @ XGuitar.com

Blink_182 tabs

Touchdown Boy bass tab

Song:TOUCHDOWN BOY
Band:BLINK-182
Album:CHESHIRE CAT
tabbed by:SAM(soscars@rocketmail.com)

Riff 1
G:-*-----------*---------------------------------------------------
D:-*-----------*---------------------------------------------------
A:-*--0000--*--7-5-------------------------------------------------
E:-*-----------*--------7-777-5-4-0-000-----------------------------
only play bit in between stars on the first time

Riff 2
G:---------------------------------------------------------------
D:---------------------------------------------------------------
A:-7--------------------------------------------------------------
E:--------9-----7-----5--------------------------------------------

Riff 3
G:---------------------------------------------------------------
D:---------------------------------------------------------------
A:-777--------------------------------------------------------------
E:--------777--555--777-----------------------------------------

Riff 4
G:---------------------------------------------------------------
D:---------------------------------------------------------------
A:-7--------------------------------------------------------------
E:--------------7------------5-------------77777777---------

Riff 5
G:---------------------------------------------------------------
D:---------------------------------------------------------------
A:-7777--------------------------------------------------------------

E:-----------9999---7777---5555-------------------------------------------------

Riff 6
G:---------------------------------------------------------------
D:---------------------------------------------------------------
A:-77777777-------------------------------------------------
E:-----------------77777777--55555555--77777777--

what to play

Riff 1 x 6   -   Riff 2 x 2  -   Riff 3 x 2   -   Riff 4 x 1   -  Riff 5
x 4   -   Riff 6 x 2   -   Riff 1 x 4

When they start talking just play an open E

Riff 5 x 2    -  Riff 6 x 2   -   Riff 1 x 4
  development and support by
dmitry ivanov