rock
 
|tablatures   |lyrics   |discussion forums   |more tabs @ XGuitar.com

Blink_182 tabs

Toast And Bananas guitar tab

Artist: Blink 182 
Song: Toast And Bananas 
Album: Cheshire Cat
Tabbed By : Rishesh Singh (XtremeDimon@icqmail.com) 

INTRO AND VERSE:  (p.m. when needed) 
e|-----------------------------------------------------------------------| 
B|-----------------------------------------------------------------------| 
G|-2-22222------------------7-777----------------------------------------| 
D|-2-22222-2-22222-4-444444-7-777----------------------------------------| 
A|-0-00000-2-22222-4-444444-5-555-5-4-2-0--------------------------------| 
E|---------0-00000-2-222222----------------------------------------------| 

SOLO THING: 
e|-----------------------------------------------------------------------| 
B|-----------------------------------------------------------------------| 
G|-----------------------------------------------------------------------| 
D|-----7-7-7-6-6---------------------------------------------------------| 
A|-0-0-----------7-7-5-5-4-4--0-0-7-7-7-5-5-4-5-7-5-4-0------------------| 
E|-----------------------------------------------------------------------| 

PRE CHORUS: 
e|-----------------------------------------------------------------------| 
B|-----------------------------------------------------------------------| 
G|---------------777777777777---------------777777-999999----------------| 
D|-777777-444444-777777777777-777777-444444-777777-999999----------------| 
A|-777777-444444-555555555555-777777-444444-555555-777777----------------| 
E|-555555-222222--------------555555-222222------------------------------| 

CHORUS: 
e|-----------------------------------------------------------------------| 
B|-----------------------------------------------------------------------| 
G|-------9-9-9-11-11-11-7-7-7--------999999-11-11-11-11-11-11-777777-----| 
D|-7-7-7-9-9-9-11-11-11-7-7-7-777777-999999-11-11-11-11-11-11-777777-----| 
A|-7-7-7-7-7-7--9--9--9-5-5-5-777777-777777--9--9--9--9--9--9-555555-----| 
E|-5-5-5----------------------555555-------------------------------------| 

SOLO: 
e|-----------------------------------------------------------------------| 
B|-----------------------------------------------------------------------| 
G|-----------------------------------------------------------------------| 
D|-----------------------------------------------------------------------| 
A|-0-2-4-5-7-5-4-0-2-4-5-7-5-4-0-2-4-5-7-5-4-0-2-4-5-4-2--0-2-4-5-7-5-4--| 
E|-----------------------------------------------------------------------| 
   
e|------------------------------------------------------------9----------| 
B|------------------------------------------10-10-10-10-10-10---12-10----| 
G|-----------------------------------------------------------------------| 
D|-----------------------------------------------------------------------| 
A|-0-2-4-5-7-5-4-0-2-4-5-7-5-4-0-2-4-5-4-2-------------------------------| 
E|-----------------------------------------------------------------------| 

e|--------------------9----------------------9-------12-12-10-10-9-9-------| 
B|--10-10-10-10-10-10---12-10-10-10-10-10-10---12-10-----------------12-12-| 
G|-------------------------------------------------------------------------| 
D|-------------------------------------------------------------------------| 
A|-------------------------------------------------------------------------| 
E|-------------------------------------------------------------------------| 

e|--------------------9----------------------9-----------------------------| 
B|--10-10-10-10-10-10---12-10-10-10-10-10-10---12-10----9--9/10\9-9/10\9---| 
G|----------------------------------------------------9--------------------| 
D|-------------------------------------------------------------------------| 
A|-------------------------------------------------------------------------| 
E|-------------------------------------------------------------------------| 

e|-------------------------------| 
B|---9/10\9-9/10\9---------------| 
G|-----------------9-------------| 
D|-------------------------------| 
A|-------------------------------| 
E|-------------------------------| 
  development and support by
dmitry ivanov