rock
 
|tablatures   |lyrics   |discussion forums   |more tabs @ XGuitar.com

Blink_182 tabs

Time To Break Up guitar tab

Time to break up by BLINK 182!

INTRO
e]--------------------------------------------------------------------------------------]
B]--------------------------------------------------------------------------------------]
G]--------------------------------------------------------------------------------------]
D]--9-9--9--7-7--7--6-6--6--9--9-------6-6-4-4-----6-6-4-4------6-6-4-4--7--x--9--------]
A]--9-9--9--7-7--7--6-6--6--9--9-----------------------------------------7--x--9--------]
E]--7-7--7--5-5--5--4-4--4--7--7----0-0---------0-0---------7-7----------5--x--7-(2x)---]
VERSE
e]--------------------------------------------------------------------------------------]
B]--------------------------------------------------------------------------------------]
G]--6-------10-10-10-10-8-8-11-11-10-10-10-10-8-8--66-66--------------------------------]
D]--x-(16x)--x--x--x--x-x-x--x--x--x--x--x--x-x-x--66-66--------------------------------]
A]--4--------8--8--8--8-6-6--9--9--8--8--8--8-6-6--44-44--------------------------------]
E]--------------------------------------------------------------------------------------]

CHORUS
e]--------------------------------------------------------------------------------------]
B]--------------------------------------------------------------------------------------]
G]--6-----------------------------------------------------------------------------------]
D]--6-(16x)--3--------4--------6--------------------------------------------------------]
A]--4--------3-(16x)--4-(16x)--6--------------------------------------------------------]
E]-----------1--------2--------4--------------------------------------------------------]

BRIDGE
e]--------------------------------------------------------------------------------------]
B]--------------------------------------------------------------------------------------]
G]--------------------------------------------------------------6-6-----6-6-------------]
D]----6---6---6-------------------------------------------------6-6-6-6-6-6-6-6--66-66--]
A]--4---4---4---4----3---3---3------4---4---4------6---6---6----4-4-6-6-4-4-6-6--66-66--]E]-----------------1---1---1---1--2---2---2---2--4---4---4---4------4-4-----4-4--44-44--]

-----------------------------------------------------------------------------------------
  development and support by
dmitry ivanov