rock
 
|tablatures   |lyrics   |discussion forums   |more tabs @ XGuitar.com

Blink_182 tabs

The Rock Show bass tab

Blink 182
Take Off Your Pants And Jacket
The Rock Show

intro

|-----------------------------------------------------------------
|-----------------------------------------------------------------
|---------------------------------5-5-5-5-5-5-5-5-7-7-7-7-7-7-7-7-
|-5-5-5-5-5-5-5-5-5-5-5-5-5-5-5-5---------------------------------

|---------------------------------
|---------------------------------
|-0-0-0-0-0-0-0-0-0-0-0-0-0-0-0-0-
|---------------------------------

verse

|-----------------------------------------------------------------
|-----------------------------------------------------------------
|---------------------------------5-5-5-5-5-5-5-5-7-7-7-7-7-7-7-7-
|-5-5-5-5-5-5-5-5-5-5-5-5-5-5-5-5---------------------------------

chorus

|---------------------------------
|---------------------------------
|-----------------9---9-7-5---5-5-
|-5---5---5---5-5-----------------

|-----------------------------------------------------------------
|-----------------------------------------------------------------
|-7-7-7-7-7-7-7-7-5-5-5-5-5-5-5-5-7-7-7-7-7-7-7-7-5-5-5-5-5-5-5-5-
|-----------------------------------------------------------------

|------------------------------
|-2-2-2-2-2-2-2-2-0------------
|-------------------------4----
|------------------------------

black and white picture part

|-----------------------------------------------------------------
|-----------------------------------------------------------------
|-9-9-9-9-9-9-9-9-9-9-9-9-9-9-7-7-5-5-5-5-5-5-5-5-7-7-5-5---------
|---------------------------------------------------------9-9-7-7-

|-----------------------------------------------------------------
|-----------------------------------------------------------------
|---------------------------------7-7-7-7-7-7-7-7-7-7-7-7-5-5-7-7-
|-5-5-5-5-5-5-5-5-5-5-5-5-7-7-9-9---------------------------------

|-----------------------------------------------------------------
|-----------------------------------------------------------------
|-9-9-9-9-9-9-9-9-9-9-9-9-9-9-7-7-5-5-5-5-5-5-5-5-7-7-5-5---------
|---------------------------------------------------------9-9-7-7-

|-----------------------------------------------------------------
|-----------------------------------------------------------------
|---------------------------------7-7-7-7-7-7-7-7-5-5-5-5-5-5-5-5-
|-5-5-5-5-5-5-5-5-5-5-5-5-7-7-9-9---------------------------------


tabbed by 4str1ngbasspunk00182
email me bsshd1@aol.com
  development and support by
dmitry ivanov