rock
 
|tablatures   |lyrics   |discussion forums   |more tabs @ XGuitar.com

Blink_182 tabs

The Party Song guitar tab

Song: The Party Song
Artist: blink-182
Album: Enema of the State
Tabbed By: Dan(Dumpweed69@hotmail.com)
-------------------------------------
www.estein.com/blink182
-------------------------------------

 Verse: 
 B E(ii) C#  E(ii) repeat a few times and on the last e chord go to F(ii)
 1---------------------------------------------
 2---------------------------------------------
 3---------------------------------------------
 4----------------------------------9--6--9-11-
 5-/9-7-6----6-7---6-7----6-7-------9--4--7--9-
 6--------7------7-----7------7--9--7----------



 1--------------------------------
 2--------------------------------
 3--------------------------------
 4---9----------------9-----------
 5--------7-6-------------7-6-----
 6-7---7-------9---7----7------9--

  development and support by
dmitry ivanov