rock
 
|tablatures   |lyrics   |discussion forums   |more tabs @ XGuitar.com

Blink_182 tabs

The Party Song bass tab

Band: blink 182
Song: The Party Song
Album: Enema of the State

Verse:(play fast)
G:--------------------------------------------------------
D:---------------2-2-2-2-2-2-2-------------2-2-2-2-2-2-2--
A:-2-2-2-2-2-2-2---------------4-4-4-4-4-4----------------
E:--------------------------------------------------------

Pre-Chorus:(And then I saw her standing there...)
G:--------------------------------
D:-4~--2--1----2--1----2-1--------
A:----------2~------2~-----2~--4--
E:--------------------------------

Next part of pre-chorus(She might be the one...)
G:-----------------------
D:-----------------------
A:-2-2-2-2-2--4-4-4-4-4--
E:-----------------------

Chorus:(Some girls try too hard...)
G:----------------------------------------------------
D:--------------2-1---------------2-1-----------------
A:-2-2-2-2-2-2-------4-4-4-4-4-4------4--2-2-2-2-2-2--
E:----------------------------------------------------

That should be all...

TAB: Matt Nielsen zorg500@hotmail.com
  development and support by
dmitry ivanov