rock
 
|tablatures   |lyrics   |discussion forums   |more tabs @ XGuitar.com

Blink_182 tabs

The Girl Next Door guitar tab

Artist : Blink 182 
Title  : The Girl Next Door 
Tabbed By : Rishesh Singh (XtremeDimon@icqmail.com) 



Intro:  
|----------------------------------------------------| 
|----------------------------------------------------| 
|--------------4-4-4-4-4-4---------------5-5-5-5-5-5-| 
|-5-5-5-5-5-5--4-4-4-4-4-4--2-2-2-2-2-2--3-3-3-3-3-3-| 
|-5-5-5-5-5-5--2-2-2-2-2-2--2-2-2-2-2-2--3-3-3-3-3-3-| 
|-3-3-3-3-3-3---------------0-0-0-0-0-0--------------| 

Riff1 
|---------------------------------------| 
|---------------------------------------| 
|---0--2--4--5--4--2--0--2--7-----------| 
|---------------------------------------| 
|---------------------------------------| 
|---------------------------------------| 

Verse 
|----------------------------------------------------| 
|----------------------------------------------------| 
|--------------4-4-4-4-4-4---------------5-5-5-5-5-5-| 
|-5-5-5-5-5-5--4-4-4-4-4-4--2-2-2-2-2-2--3-3-3-3-3-3-| 
|-5-5-5-5-5-5--2-2-2-2-2-2--2-2-2-2-2-2--3-3-3-3-3-3-| 
|-3-3-3-3-3-3---------------0-0-0-0-0-0--------------| 

Chorus 
|----------------------------------------------------| 
|----------------------------------------------------| 
|--------------4-4-4-4-4-4---------------5-5-5-5-5-5-| 
|-5-5-5-5-5-5--4-4-4-4-4-4--2-2-2-2-2-2--3-3-3-3-3-3-| 
|-5-5-5-5-5-5--2-2-2-2-2-2--2-2-2-2-2-2--3-3-3-3-3-3-| 
|-3-3-3-3-3-3---------------0-0-0-0-0-0--------------| 
  development and support by
dmitry ivanov