rock
 
|tablatures   |lyrics   |discussion forums   |more tabs @ XGuitar.com

Blink_182 tabs

The Fallen Interlude bass tab

This song is drop D-tuning
Play with fingers
PLay this i dont know how many time but there is 2 riffs

G: -----------------------------------------------------------------------
D: -----------------------------------------------------------------------
A: ---------0-------------------------------------------------------------
D: 2-2-2-2-2-2---2-2-2-2-2-0-2--------------------------------------------

G: -----------------------------------------------------------------------
D: -----------------------------------------------------------------------
A: ---------0-------------------------------------------------------------
D: 2-2-2-2-2-2--2-2-2-2-2-2-----------------------------------------------

New song of UNTITLED new CD!  later kids   easy song
  development and support by
dmitry ivanov