rock
 
|tablatures   |lyrics   |discussion forums   |more tabs @ XGuitar.com

Blink_182 tabs

The Country Song bass tab

band: blink 182
song: the country song
album: the enema strikes back (the mark, tom, and travis show)
tabber: tyler followthleeder0@aol.com

     this is a real easy song and i funny one too.

 first riff
G -----------------------------------------------
D -----------------------------------------------
A --3----3---3---3---0--2------------------------
E ----3----3---3---3-----------------------------

 second riff
G -----------------------------------------------
D -----------------------------------------------
A --3-3-----3-3-----3-3-----3---0-2--------------
E ------3-3-----3-3-----3-3---3------------------

 thats it.
  development and support by
dmitry ivanov