rock
 
|tablatures   |lyrics   |discussion forums   |more tabs @ XGuitar.com

Blink_182 tabs

Story Of A Lonely Guy guitar tab

Intro

Play this twice

e :--------5-5-5--7-7-7-7-7-7-7-7--|--------5-5-5--7-7-7--5-5-5-5-5-5-5-5
B :-5-5-5--------------------------|-5-5-5-------------------------------
G :--------------------------------|-------------------------------------
D :--------------------------------|-------------------------------------
A :--------------------------------|-------------------------------------
E :--------------------------------|-------------------------------------

Verse

Play this twice (palm muted)

e :-----------------------------------------------------------------------------------
B :-----------------------------------------------------------------------------------
G :-----------------------------------------------------------------------------------
D :-----------------------------------------------------------------------------------
A :-7-7-7-7-7-7-7-7--9-9-9-9-9-9-9-9--11-11-11-11-11-11-11-11--12-12-12-12-12-12-12-12
E :-5-5-5-5-5-5-5-5--7-7-7-7-7-7-7-7--9--9--9--9--9--9--9--9---10-10-10-10-10-10-10-10

Pre chorus

Play this twice

e :---------------------------------------------------------------
B :---------------------------------------------------------------
G :---------------------------------------------------------------
D :------7-------7-------7-------7-------7-------7-------7-------7
A :-4-4-----4-4-----5-5-----5-5-----0-0-----0-0-----7-7-----7-7---
E :---------------------------------------------------------------

Chorus

Play this 4 times

Pick slide into first chord

e :-------------------------------------------------------------------
B :-------------------------------------------------------------------
G :------------------9-9-9-9-9-9-9-9-------------------7-7-7-7-7-7-7-7
D :-7-7-7-7-7-7-7-7--7-7-7-7-7-7-7-7--4-4-4-4-4-4-4-4--7-7-7-7-7-7-7-7
A :-7-7-7-7-7-7-7-7--7-7-7-7-7-7-7-7--4-4-4-4-4-4-4-4--5-5-5-5-5-5-5-5
E :-5-5-5-5-5-5-5-5-------------------2-2-2-2-2-2-2-2-----------------

The final pre-chorus

Play this twice

e :--------------------------------|----------------
B :--------------------------------|----------------
G :--------------------------------|-9-9-9-9-9-9-9-9
D :------7-------7-------7-------7-|-9-9-9-9-9-9-9-9
A :-4-4-----4-4-----5-5-----5-5----|-7-7-7-7-7-7-7-7
E :--------------------------------|----------------

Then play this...

e :------------------------------------------------|-------------------------------
B :------------------------------------------------|-------------------------------
G :------------------------------------------------|-------------------------------
D :------7-------7-------7-------7-------7-------7-|------7-------7-------7-------7
A :-4-4-----4-4-----5-5-----5-5-----7-7-----7-7----|-4-4-----4-4-----5-5-----5-5---
E :------------------------------------------------|-------------------------------

...And then back into the chorus to finish the song.  There is one change in the
  final chorus: Play the 2nd to last chord a few extra times, and then finish out
  by playing the last chord once and letting it ring (listen to the song for the 
  pattern).

ENJOY!
  development and support by
dmitry ivanov