rock
 
|tablatures   |lyrics   |discussion forums   |more tabs @ XGuitar.com

Blink_182 tabs

Story Of A Lonely Guy bass tab

Music X Tabs [http://www.mxtabs.net]
Intro

G:----9-9-9------9-9-9------6-6-6------6-4-
D:-77--7-7-7--99--9-9-9--44--4-4-4----7----
A:-----------------------------------5-----
E:-----------------------------------------

G:----9-9-9------9-9-9------6-6-6----------
D:-77--7-7-7--99--9-9-9--44--4-4-4----5-7-5
A:-----------------------------------5-----
E:-----------------------------------------

Verse (Push it out Fake a smile)

G:-------------------------------------
D:-------------------------------------
A:------------------44444444-55555555--
E:-55555555-77777777-------------------    X4

Pre Chorus (da da da:)

G:-----------------------------------
D:-----------------------------------
A:-44444444-55555555--------77777777-
E:------------------55555555---------   X2

Chorus (She makes me feel like its raining:)

G:-------------------------------------
D:-------------------------------------
A:----------------------------55555555-
E:-55555555-00000000-22222222----------    X4

Intro

Verse 	X4

Pre Chorus	X2

Chorus	X4

Interlude

G:------------------------------------
D:------------------------------------
A:-44444444-55555555------------------
E: ------------------0000000000000000-    X2

G:----------------------------------------------------------------
D:----------------------------------------------------------------
A:-44444444-55555555-7777777777777777-4444------44444444-55555555-
E:-----------------------------------------5555-------------------

Chorus 	X5

End with

G:----------------------------------------------
D:----------------------------------------------
A:----------------------------5555555555555555--
E:-55555555-00000000-22222222-----------------5~
  development and support by
dmitry ivanov