rock
 
|tablatures   |lyrics   |discussion forums   |more tabs @ XGuitar.com

Blink_182 tabs

Stockholm Syndrome guitar tab

Hey this is my first tab but its 100 % correct cuz i bought the official tab book and this is wat it say.

Tuning:
EADGBE

*=harmonics
.=palm muted

C the Am 9 chord at the bottom of the page

    Em        C5         G         Am
E-----------------------------------------------------------------------
B-------------------------------------------------0---------------------
G-----------5-5-5-5---0-0-0-0---2-2-2-2---7-0-0-0-----------------------
D-2-2-2-2---5-5-5-5---0-0-0-0---2-2-2-2---------------------------------
A-2-2-2-2---3-3-3-3---2-2-2-2---0-0-0-0---------------------------------
E-0-0-0-0---3-3-3-3---3-3-3-3-------------------------------------------


E-----------------------------------------------------------------------------------------
B-----------------------------------------------------------------------------------------
G----------------------12*-5-5-5-5------------12*-0-0-0-0------------12*-2-2-2-2--5-5-5-5-
D-2-2-2-2--12*-12*---------5-5-5-5-12*-12*--------0-0-0-0-12*-12*--------2-2-2-2--5-5-5-5-
A-2-2-2-2----------12*-----3-3-3-3---------12*----2-2-2-2---------12-----0-0-0-0--3-3-3-3-
E-0-0-0-0------------------3-3-3-3----------------3-3-3-3-------------------------3-3-3-3-

Chorus:
     C5                  Em                              C5
[This is the first] [(thing i remember)] [Now its the last (thing left on my mind)]
      G                                             Am              Am9
[Afraid of the dark (do u hear me whisper)] [An empty heart (replaced with paranioa)]
      Em                                                C5
[Where do we go (life's temporary)]   [After we're gone (like new years resolutions)]
      G                                                       Am
[Why is this hard (do you recognize me)]  [I know I'm wrong (but I can't help believing)]

E---5-7-----------------------------------------------------------------
B-8-----8-8-7------------------------------repeat-twice----------------
G-----------------------------------------------------------------------
D--------------5-5-5-5-5-4-4-4-5-5-5-5-5--------------------------------
A--------------x-x-x-x-x-x-x-x-x-x-x-x-x--------------------------------
E--------------3-3-3-3-3-2-2-2-3-3-3-3-3--------------------------------

E-----------------------------------------------------------------------
B-------------------------------------------repeat-twice----------------
G-----------------------------------------------------------------------
D--5-7-9-5-5-4-5-5-5-5-5-4-4-4-5-5-5-5-5--------------------------------
A--x-x-x-x-x-x-x-x-x-x-x-x-x-x-x-x-x-x-x--------------------------------
E--3-5-7-3-3-2-3-3-3-3-3-2-2-2-3-3-3-3-3--------------------------------

E-------------------------------------------------------------------------------------
B------------------------------------------repeat-three-times-------------------------
G-------------------------------------------------------------------------------------
D-------------------------------------------------------------------------------------
A-------------------------------------------------------------------------------------
E-7-7-7-7-7-7-7-7-8-7-8-8-8-8-8-8-8-8-7-7-7-7-7-7-7-7-5-5-5-5-5-5-5-5-3-3-3-3-3-3-3-2-
  . . . . . . . . . . . . . . . . . . . . . . . . . . . . . . . . . . . . . . . . . .

E-------------------------------------------------------------------------------------
B-------------------------------------------------------------------------------------
G-------------------------------------------------------------------------------------
D----5-5-5-5-5-5-5-5-5-5-5-5-5-5-5-5-5-5-5-5-5-5-5-5---7-7-7-7-7-7-7-7-5-5-5-5-5-5-5-5
A----2-2-2-2-2-2-2-2-3-3-3-3-3-3-3-3-2-2-2-2-2-2-2-2---x-x-x-x-x-x-x-x-x-x-x-x-x-x-x-x
E------------------------------------------------------5-5-5-5-5-5-5-5-3-3-3-3-3-3-3-3


E--------------------------------------------------------------------------------
B--------------------------------------------------------------------------------
G-----------------5-5-5-5-5-5-5-5------------------------------------------------
D-4-4-4-4-4-4-4-4-5-5-5-5-5-5-5-5-4-4-4-4-4-4-4-4-7-7-7-7-7-7-7-7-5-5-5-5-5-5-5-5
A-2-2-2-2-2-2-2-2-3-3-3-3-3-3-3-3-2-2-2-2-2-2-2-2-x-x-x-x-x-x-x-x-x-x-x-x-x-x-x-x
E-------------------------------------------------5-5-5-5-5-5-5-5-3-3-3-3-3-3-3-3


 Chorus:
     C5                  Em                              C5
[This is the first] [(thing i remember)] [Now its the last (thing left on my mind)]
      G                                             Am              Am9
[Afraid of the dark (do u hear me whisper)] [An empty heart (replaced with paranioa)]
      Em                                                C5
[Where do we go (life's temporary)]   [After we're gone (like new years resolutions)]
      G                                                       Am
[Why is this hard (do you recognize me)]  [I know I'm wrong (but I can't help believing)]


    Am9
E-------------
B-------------
G-2-2-2-2-----
D-0-0-0-0-----
A-x-x-x-x-----
E-2-2-2-2-----


Well thats it. rate me good guys.

               -Charlie
  development and support by
dmitry ivanov