rock
 
|tablatures   |lyrics   |discussion forums   |more tabs @ XGuitar.com

Blink_182 tabs

Stay Together For The Kids bass tab

Blink 182
Stay Together For the Kids

Transcribed By: Ryan Huntsman  (IbanezBassMX)
Email: Ryan82184@aol.com

Standard Tunning

Bass doesnt play till the chorus.

Chorus  (0:39)
G------------------------------------------------------------------
D------------------------------------------------------------------   X2
A------------------------------------------------------------------
E-3-3-3-3-3-3-3-3-3-3-3-3-3-3-3-3-2-2-2-2-2-2-2-2-2-2-2-2-2-2-0-2--

(twenty years now lost)                              (Its not right)
G------------------------------------------------------------------
D------------------------------------------------------------------
A------------------------------------------------------------------
E-3-3-3-3-3-3-3-3-3-3-3-3-3-3-3-3-2-2-2-2-2-2-2-2-2-2-2-2-2-2-2-0--

                     (Its not right)
G----------------------------------
D----------------------------------
A----------------------------------
E-2-2-2-2-2-2-2-2-2-2-2-2-2-2-2-0--

Bass Fill  (1:06)
G------
D------
A------
E-10/--

Interlude  (2:12)
G-----7-----7----------7-----7-----------7-----7----------7-----7-------
D-0-------0---0-5-7--------7---7-7---5-------5---5-5--7-------7----7-7--   X3
A-----------------------------------------------------------------------
E-----------------------------------------------------------------------

G------------------------------------------------------------------
D------------------------------------------------------------------
A------------------------------------------------------------------
E-3-3-3-3-3-3-3-3-3-3-3-3-3-3-3-3-2-2-2-2-2-2-2-2-2-2-2-2-2-2-0-2--

(3:15)
G------------------------------------------------------------------
D------------------------------------------------------------------
A------------------------------------------------------------------
E-2-2-2-2-2-2-2-2-2-2-2-2-2-2-0-2-3-3-3-3-3-3-3-3-3-3-3-3-3-3-3-3--

G------------------------------------------------------------------
D------------------------------------------------------------------   
A------------------------------------------------------------------
E-3-3-3-3-3-3-3-3-3-3-3-3-3-3-3-3-2-2-2-2-2-2-2-2-2-2-2-2-2-2-0-2--

Outro  (3:31)           repeat and fade
G------------------------------------------------------------------
D------------------------------------------------------------------
A------------------------------------------------------------------
E-3-3-3-3-3-3-3-3-3-3-3-3-3-3-3-3-2-2-2-2-2-2-2-2-2-2-2-2-2-2-2-2--

Thats it, this song is very easy to play so you should have no problems.
This tab is 100% correct
Please rate this tab, Thanks
  development and support by
dmitry ivanov