rock
 
|tablatures   |lyrics   |discussion forums   |more tabs @ XGuitar.com

Blink_182 tabs

Reebok Commercial guitar tab

Band: Blink-182
Song: Reebok Commercial
Album: Buddha
Tabbed by: Daniel Webster (blinkthis_182@hotmail.com)

a really easy song,but still a great song,the sick riffs are hard to play though 

this is at least 99% correct,this is exactly how they played it live gauranteed. 


-|---------------------------------------------------------------------------- 
-|---------------------------------------------------------------------------- 
-|-7^^----777^^--------------------------------------------------------------- 
-|-7^^------7^^--------------------------------------------------------------- 
-|-5^^------5^^--------------------------------------------------------------- 
-|---------------------------------------------------------------------------- 
                                                                               

-|---------------------------------------------------------------------------- 
-|---------------------------------------------------------------------------- 
-|-777777-121212121212-141414141414-121212121212------------------------------ 
-|-777777-121212121212-141414141414-121212121212------------------------------ 
-|-555555-101010101010-121212121212-101010101010------------------------------ 
-|---------------------------------------------------------------------------- 
  Pre Chorus                                                                   

-|---------------------------------------------------------------------------- 
-|---------------------------------------------------------------------------- 
-|-777777-666666-444444------------------------------------------------------- 
-|-777777-666666-444444-555555------------------------------------------------ 
-|-555555-444444-222222-555555------------------------------------------------ 
-|----------------------333333------------------------------------------------ 
                                                                               

-|---------------------------------------------------------------------------- 
-|---------------------------------------------------------------------------- 
-|-7-99-1111-1212-1414-1212-11/12\11-9/11\9-7-99-1111-1212-14^^--------------- 
-|-7-99-1111-1212-1414-1212-11/12\11-9/11\9-7-99-1111-1212-14^^--------------- 
-|-5-77--9-9-1010-1212-1010--9/10\-9-7/-9\7-5-77--9-9-1010-12^^--------------- 
-|---------------------------------------------------------------------------- 
    Verse                                                                      

-|---------------------------------------------------------------------------- 
-|---------------------------------------------------------------------------- 
-|-777777777------------------------------------------------------------------ 
-|-777777777-555555-777777777-5555555555-------------------------------------- 
-|-555555555-555555-777777777-5555555555-------------------------------------- 
-|-----------333333-555555555-3333333333-------------------------------------- 
  Chorus                                                                       

-|---------------------------------------------------------------------------- 
-|---------------------------------------------------------------------------- 
-|-777777--------------------------------------------------------------------- 
-|-777777-777777-444444-555555------------------------------------------------ 
-|-555555-777777-444444-555555------------------------------------------------ 
-|--------555555-222222-333333------------------------------------------------ 
  Solo                                                                         

-|---------------------------------------------------------------------------- 
-|---------------------------------------------------------------------------- 
-|-7-9-7-11-9-7-9-7-9-12-11-9-7--7-9-7-11-9-7--7t9p7t11p7t9p7t11p7-12-11-9-7-- 
-|---------------------------------------------------------------------------- 
-|---------------------------------------------------------------------------- 
-|---------------------------------------------------------------------------- 
        this below x2                                                          

-|----10----10-12-12-10-10-9-9-10-10----12----12-14-14-12-12-10-10-9-9-------- 
-|-10----10--------------------------10----10--------------------------------- 
-|---------------------------------------------------------------------------- 
-|---------------------------------------------------------------------------- 
-|---------------------------------------------------------------------------- 
-|---------------------------------------------------------------------------- 
        there's another riff i cant work out but probably noone can play it    
  development and support by
dmitry ivanov