rock
 
|tablatures   |lyrics   |discussion forums   |more tabs @ XGuitar.com

Blink_182 tabs

Point Of View guitar tab

Song: Point of View
Band: Blink-182
Album: Buddha
By:Frédéric Hamel (http://derfpunk.multimania.com)

  h:harmonic
  p:pull

e|---------------------------------------------------------------------------------|
B|---------------------------------------------------------------------------------|
G|--------------------6-7------------------------------------6-7-------------------|
D|------------------7-6-7--------------7-4-2---------------7-6-7--------5---7-4-2--|
A|-5-5-5-5-5-5-5-5--7-4-5--5-5-5-5-5-5-7-4-2---------------7-4-5--5-5-5---5-7-4-2--|
E|------------------5------------------5-2-0--5-5-5-5-5-5--5----------------5-2-0--|
   h h h h h h h h         h h h h h h        h h h h h h         h h h h h

e|---------------------------------------------------------------------------|X2
B|---------------------------------------------------------------------------|
G|------6-7-7-7-7-7----------9-9-9-9-9---------------------------------------|
D|--7-7-6-7-7-7-7-7--7-7--4--9-9-9-9-9---------------------------------------|
A|--7-7-4-5-5-5-5-5--7-7--4--7-7-7-7-7---------------------------------------|
E|--5-5--------------5-5--2--------------------------------------------------|

e|---------------------------------------------------------------------------|X2
B|---------------------------------------------------------------------------|
G|--------9-9-9--------------------------------------------------------------|
D|-7-7-7--9-9-9--9-9-9--7-7-7------------------------------------------------|
A|-7-7-7--7-7-7--9-9-9--7-7-7------------------------------------------------|
E|-5-5-5---------7-7-7--5-5-5------------------------------------------------|

e|---------------------------------------------------------------------------|X2
B|---------------------------------------------------------------------------|
G|-9-9-9-9-11-11-11-11--4-4-4-4--7-7-7-7-------------------------------------|
D|-9-9-9-9-11-11-11-11--4-4-4-4--7-7-7-7-------------------------------------|
A|-7-7-7-7--9--9--9--9--2-2-2-2--5-5-5-5-------------------------------------|
E|---------------------------------------------------------------------------|

e|-5-5-7-9-0-2---2-4-5-4-7--4-5-7-0--12-0-10-0-9-0-7-0-----------------------|X2
B|---------------------------------------------------------------------------|
G|---------------------------------------------------------------------------|
D|---------------------------------------------------------------------------|
A|---------------------------------------------------------------------------|
E|---------------------------------------------------------------------------|

e|-9-0-10-0-9-0-7-0-5-0-4-0-5-0-7-0-5-0-4-0-2-0-4-0-5-0-4-0-5-0-5-0-4-0-5-0-7|
B|---------------------------------------------------------------------------|
G|---------------------------------------------------------------------------|
D|---------------------------------------------------------------------------|
A|---------------------------------------------------------------------------|
E|---------------------------------------------------------------------------|

e|-0-5-0-4-0-2-4-0-7-0-5-0-5-0-2-0--4-5-5-4-2p0-2----------------------------|
B|---------------------------------------------------------------------------|
G|---------------------------------------------------------------------------|
D|---------------------------------------------------------------------------|
A|---------------------------------------------------------------------------|
E|---------------------------------------------------------------------------|

e|---------------------------------------------------------------------------|
B|---------------------------------------------------------------------------|
G|----6-7------------------------6-7---------6-7-----------------------------|
D|--7-6-7--------7-4-2---------7-6-7---5---7-6-7-----------------------------|
A|--7-4-5-5-5-5--7-4-2---------7-4-5-5---5-7-4-5-----------------------------|
E|--5------------5-2-0--5-5-5--5-----------5---------------------------------|

e|-------------------------------------X2------------------------------------|
B|---------------------------------------------------------------------------|
G|------6-7-7-7-7-7----------9-9-9-9-9---------------------------------------|
D|--7-7-6-7-7-7-7-7--7-7--4--9-9-9-9-9----7----------------------------------|
A|--7-7-4-5-5-5-5-5--7-7--4--7-7-7-7-7----7----------------------------------|
E|--5-5--------------5-5--2---------------5----------------------------------|

  development and support by
dmitry ivanov