rock
 
|tablatures   |lyrics   |discussion forums   |more tabs @ XGuitar.com

Blink_182 tabs

Please Take Me Home bass tab

BAND: Blink182
SONG: Please Take Me Home 
ALBUM: Take Off Your Pants And Jacket
TABBED BY: Blink182forever69

Verse x4
G|---------------------------------------------------------------
D|---------------------------------------------------------------
A|-2-2-2-2-2-2-2-4-4-4-4-4-4-4-4---------------------------------
E|-------------------------------4-4-4-4-4-4-4-4-0-0-0-0-0-0-0-0-

Pre-chorus x1
G|---------------------------------------------------
D|---------------------------------------------------
A|-------------2-2-2-2-2-----------------------------
E|-0-0-0-0-0---------------4-4-4-4-4---2-2-2-2-2-----

G|---------------------------------------------------
D|---------------------------------------------------
A|---------------------------------------------------
E|-0-0-0-0-0-0-0-0-0-0-0-0-0-0-0-0-0-0-0-0-0-0-0-0-0-

Chorus
G|-----------------------------------------------------------------
D|-----------------------------------------------------------------
A|-2---2-2-2-2-2-2-1---1-1-1-1-1-1---------------------------------
E|---------------------------------4---4-4-4-4-4-4-0---0-0-0-0-0-0-

G|-----------------------------------------------------------------
D|-----------------------------------------------------------------
A|-2---2-2-2-2-2-2-1---1-1-1-1-1-1---------------------------------
E|---------------------------------4---4-4-4-4-4-4-0---------------

Verse x4
G|---------------------------------------------------------------
D|---------------------------------------------------------------
A|-2-2-2-2-2-2-2-4-4-4-4-4-4-4-4---------------------------------
E|-------------------------------4-4-4-4-4-4-4-4-0-0-0-0-0-0-0-0-

Pre-chorus x1
G|---------------------------------------------------
D|---------------------------------------------------
A|-------------2-2-2-2-2-----------------------------
E|-0-0-0-0-0---------------4-4-4-4-4---2-2-2-2-2-----

G|---------------------------------------------------
D|---------------------------------------------------
A|---------------------------------------------------
E|-0-0-0-0-0-0-0-0-0-0-0-0-0-0-0-0-0-0-0-0-0-0-0-0-0-

Chorus
G|-----------------------------------------------------------------
D|-----------------------------------------------------------------
A|-2---2-2-2-2-2-2-1---1-1-1-1-1-1--------------------------------- x3
E|---------------------------------4---4-4-4-4-4-4-0---0-0-0-0-0-0-

G|-----------------------------------------------------------------
D|-----------------------------------------------------------------
A|-2---2-2-2-2-2-2-1---1-1-1-1-1-1--------------------------------- x1
E|---------------------------------4---4-4-4-4-4-4-0---------------


Interlude                                                  
G|---------|-----------------------------------------------------------------|
D|---------|-----------------------------------------------------------------|
A|-2-2-(x7)|-2-2-2-2-2-2-2-2-4-4-4-4-4-4-4-4-6-6-6-6-6-6-6-6-2-2-2-2-2-2-2-2-|x2
E|---------|-----------------------------------------------------------------|

             
G|-----------------------------------------------------------------|
D|-----------------------------------------------------------------|
A|-2-2-2-2-2-2-2-2-1-1-1-1-1-1-1-1---------------------------------|x2
E|---------------------------------4-4-4-4-4-4-4-4-0-0-0-0-0-0-0-0-|


G|-------------------------------------------------------------|
D|-------------------------------------------------------------|
A|-2---2---2-2-2-1---1---1-1-1---------------------------------| x2
E|-----------------------------4---4---4-4-4-0---0-0-0-0-0-0-0-|

           
G|---------------------------------|
D|---------------------------------|
A|---------------------------------|x1
E|-2-2-2-2-2-2-2-2-2-2-2-2-2-2-2-2-|

Chorus
G|-----------------------------------------------------------------
D|-----------------------------------------------------------------
A|-2---2-2-2-2-2-2-1---1-1-1-1-1-1--------------------------------- x3
E|---------------------------------4---4-4-4-4-4-4-0---0-0-0-0-0-0-

G|-----------------------------------------------------------------
D|-----------------------------------------------------------------
A|-2---2-2-2-2-2-2-1---1-1-1-1-1-1--------------------------------- x1
E|---------------------------------4---4-4-4-4-4-4-0---------------
  development and support by
dmitry ivanov