rock
 
|tablatures   |lyrics   |discussion forums   |more tabs @ XGuitar.com

Blink_182 tabs

Pathetic bass tab

Band: blink 182
Song: Pathetic
Album(s): Dude Ranch, The Mark, Tom, & Travis Show

Intro:
G:----------------------------------------------
D:-1-1-1-1-1-1--2-2-2-2-2-2---------------------
A:--------------------------2-2-2-2-2-2-2-2-2---
E:----------------------------------------------

Verse:
G:---------------------------------------------------
D:-----------------------4-4-4-4-4-4--2-2-2-2-2-2-2--
A:-2-2-2-2-2-2-2-2-2-2-2-----------------------------
E:---------------------------------------------------

Chorus:
G:----------------------------------------------------------------
D:----------------------------------------------------------------
A:-----------------2-------------------2--------------------------
E:-4-4-4-4-4-4-4-4---2-2-2-2-2-2-2-2-2---0-0-0-0-0-0-0-0-0-0-0-0--

TAB: Matt Nielsen zorg500@hotmail.com
  development and support by
dmitry ivanov