rock
 
|tablatures   |lyrics   |discussion forums   |more tabs @ XGuitar.com

Blink_182 tabs

Online Songs bass tab

Blink 182 - Online Songs

Intro: (3X)
G:---------------------------------------------------------------
D:---------------------------------------------------------------
A:--------------------------------5-5-5-5-5-5-5-5-7-7-7-7-7-7-7-7
E:5-5-5-5-5-5-5-5-7-7-7-7-7-7-7-7--------------------------------

G:---------------------------------------------------
D:---------------------------------------------------
A:--------------------------------5-5-5-5-5-5-5-5-7~-
E:5-5-5-5-5-5-5-5-7-7-7-7-7-7-7-7--------------------

G:---------------------------------------------------------------
D:---------------------------------------------------------------
A:--------------------------------5-5-5-5-5-5-5-5-7-7-7-7-7-7-7-7
E:5-5-5-5-5-5-5-5-7-7-7-7-7-7-7-7--------------------------------

G:-------------------------------------------------------------
D:-------------------------------------------------------------
A:--------------------------------5-5-5-5-5-5-5-5--7--7--7--7--
E:5-5-5-5-5-5-5-5-7-7-7-7-7-7-7-7------------------------------

(2X)
G:---------------------------------------------------------
D:---------------------------------------------------------
A:----------------5-5-5-5-5-5-5-5-9999-7777----------------
E:5-5-5-5-5-5-5-5---------------------------5-5-5-5-5-5-5-5

G:---------------------------------------------------------------
D:---------------------------------------------------------------
A:--------------------------------5-5-5-5-5-5-5-5-7-7-7-7-7-7-7-7
E:5-5-5-5-5-5-5-5-7-7-7-7-7-7-7-7--------------------------------

G:-------------------------------------------------------------
D:-------------------------------------------------------------
A:--------------------------------5-5-5-5-5-5-5-5--7--7--7--7--
E:5-5-5-5-5-5-5-5-7-7-7-7-7-7-7-7------------------------------

(2X)
G:---------------------------------------------------------
D:---------------------------------------------------------
A:----------------5-5-5-5-5-5-5-5-9999-7777----------------
E:5-5-5-5-5-5-5-5---------------------------5-5-5-5-5-5-5-5

(2X)
G:---------------------------------------------------------------
D:---------------------------------------------------------------
A:5-5-5-5-5-5-5-5-----------------7-7-7-7-7-7-7-7-5-5-5-5-5-5-5-5
E:----------------5-5-5-5-5-5-5-5--------------------------------

(2X)
G:---------------------------------------------------------
D:---------------------------------------------------------
A:----------------5-5-5-5-5-5-5-5-9999-7777----------------
E:5-5-5-5-5-5-5-5---------------------------5-5-5-5-5-5-5-5

(4X)
G:---------------------------------------------------------------
D:---------------------------------------------------------------
A:5-5-5-5-5-5-5-5-----------------7-7-7-7-7-7-7-7-5-5-5-5-5-5-5-5
E:----------------5-5-5-5-5-5-5-5--------------------------------

(2X)
G:-------------------------------------
D:-------------------------------------
A:---55--------------------------------
E:22----5-5-5-5-5-5-5-5-0-0-0-0-0-0-0-0

(2X)
G:---------------------------------------------------------------
D:---------------------------------------------------------------
A:----------------5-5-5-5-5-5-5-5--------------------------------
E:2-2-2-2-2-2-2-2-----------------5-5-5-5-5-5-5-5-0-0-0-0-0-0-0-0

(4X)
G:---------------------------------------------------------------
D:---------------------------------------------------------------
A:5-5-5-5-5-5-5-5-----------------7-7-7-7-7-7-7-7-5-5-5-5-5-5-5-5
E:----------------5-5-5-5-5-5-5-5--------------------------------

End On
G:-------------
D:-------------
A:-------------
E:10-10-10-10/5
  development and support by
dmitry ivanov