rock
 
|tablatures   |lyrics   |discussion forums   |more tabs @ XGuitar.com

Blink_182 tabs

Obvious guitar tab

Gtr.1 (dist.)

E|-------------------------------------||
B|-------------------------------------||
G|-------------------------------------||
D|5-------5----5--5-------5---5-----5--|| 2x
A|2-------2----2--3-------3---3-----3--||
E|0-------0----0--3-------3---3-----3--||

Then Gtr. 2 joins in and does the same as
Gtr.1 - both guitars still dist.

E|-------------------------------------||
B|-------------------------------------||
G|-------------------------------------||
D|5-------5----5--5-------5---5-----5--|| 4x
A|2-------2----2--3-------3---3-----3--||
E|0-------0----0--3-------3---3-----3--||

w/flanger no dist. gtr.1 only
E|-------------------------------------||
B|-------------------------------------||
G|0------------------------------------||
D|5------------------------------(5)---||
A|-------------------------------------||
E|-------------------------------------||


E|-------------------------------------||
B|-------------------------------------||
G|/0-----------------------------------||
D|/7-----------------------------(7)---||
A|-------------------------------------||
E|-------------------------------------||


E|-------------------------------------||
B|-------------------------------------||
G|/0-----------------------------------||
D|/9-----------------------------(9)---||
A|-------------------------------------||
E|-------------------------------------||


E|-------------------------------------||
B|-------------------------------------||
G|/0-----------------------------------||
D|/10----------------------------------||
A|-------------------------------------||
E|-------------------------------------||

Chorus dist.

E|-------------------------------------||
B|-------------------------------------||
G|-------------------------------------||
D|-------------------------------------||
A|-------------------------------------||
E|3------------------------------------||


E|------------------||
B|------------------||
G|------------------||
D|------------------||
A|2-2-2-0-0-0-3-3-3-||
E|------------------||


E|------------------||
B|------------------||
G|------------------||
D|------------------||
A|------------------||
E|0-0-0-2-2-2-2-3-3-||


E|------------------||
B|------------------||
G|------------------||
D|------------------||
A|------------------||
E|3-3-3-3-3-3-3-3-3-||


E|------------------||
B|------------------||
G|------------------||
D|------------------||
A|----------2-2-2-0-||
E|3-3-3-3-3---------||


E|------------------------||. Go bak to begining after this
B|------------------------||. but do the first staff only 1nce
G|------------------------||. and 2nd staff only 3 times
D|------------------------||. once u came bak here continue the
A|0-0-3-3-3---------------||. song
E|----------0-0-0-2-2-2-2-||.


E|------------------||
B|------------------||
G|------------------||  %
D|------------------||  %
A|------------------||
E|3-3-3-3-3-3-3-3-3-||


E|------------------||
B|------------------||
G|------------------||
D|------------------||
A|------------------||
E|3-3-3-3-3-3-3-3-3-||



E|------------------||
B|------------------||
G|------------------||
D|------------------||
A|2-2-2-0-0-0-3-3-3-||
E|------------------||



E|------------------||
B|------------------||
G|------------------|| go to % then come bak here
D|------------------|| and continue
A|------------------||
E|0-0-0-2-2-2-2-----||


E|------------------||
B|------------------||
G|------------------||
D|5-----------------||
A|4-----------------||
E|------------------||


E|------------------||
B|------------------||
G|------------------||
D|------------------||
A|------------------||
E|------------------||

dist. guitar 1 only

E|------------------------------------------||
B|------------------------------------------||
G|12-12-12-------9-9-9-13-13-13-13-13-13-13-||
D|12-12-12-1010109-9-9-13-13-13-13-13-13-13-|| 2x
A|10-10-10-1010107-7-7-11-11-11-11-11-11-11-||
E|---------8-8-8----------------11----------||

then guitar 2 with dist. joins in and does the same as gtr.1

E|--------------------------------||
B|--------------------------------||
G|------5-5-5-------------5-5-----||
D|5-5-5-5-5-5-2-2-2-6-6-6-5-5-6-6-|| 4x
A|5-5-5-3-3-3-2-2-2-6-6-6-3-3-6-6-||
E|3-3-3-3-3-3-0-0-0-4-4-4-3-3-4-4-||

gtr.1 distortion gtr.2 clean and does the chords

 G5
  / / / / / / / / / / / / / / / /

E|---------------------------------||
B|---------------------------------||
G|12121212121212121212121212121212-|| &
D|x-x-x-x-x-x-x-x-x-x-x-x-x-x-x-x--||
A|10101010101010101010101010101010-|| &
E|---------------------------------||

D/F#
  / / / / / / / / / / / / / / / /

E|---------------------------------||
B|---------------------------------||
G|12121212121212121212121212121212-||
D|x-x-x-x-x-x-x-x-x-x-x-x-x-x-x-x--||
A|10101010101010101010101010101010-||
E|---------------------------------||

G5
  / / / / / / / / / / / / / / / /

E|---------------------------------||
B|---------------------------------||
G|12121212121212121212121212121212-||
D|x-x-x-x-x-x-x-x-x-x-x-x-x-x-x-x--||
A|10101010101010101010101010101010-||
E|---------------------------------||

D/F#              C/G
  / / / / / / / / / / / / / / / /

E|---------------------------------||
B|---------------------------------||
G|12121212121212121212121212121212-||
D|x-x-x-x-x-x-x-x-x-x-x-x-x-x-x-x--|| Go to & and come bak here
A|10101010101010101010101010101010-|| 2 times then continue
E|---------------------------------||

G5
  / / / / / / / / / / / / / / / /

E|---------------------------------||
B|---------------------------------||
G|12121212121212121212121212121212-||
D|x-x-x-x-x-x-x-x-x-x-x-x-x-x-x-x--||
A|10101010101010101010101010101010-||
E|---------------------------------||

D/F#              C/G             Em
  / / / / / / / / / / / / / / / / /

E|2-2-2-2-2-2-2---------------------||
B|3-3-3-3-3-3-3---5-5-5-5-5-5-5-----||
G|2-2-2-2-2-2-2-x-5-5-5-5-5-5-5-----||
D|4-4-4-4-4-4-4-x-5-5-5-5-5-5-5---5-||
A|5-5-5-5-5-5-5-x-3-3-3-3-3-3-3---2-||
E|2-2-2-2-2-2-2-x-3-3-3-3-3-3-3-0-0-||
  development and support by
dmitry ivanov