rock
 
|tablatures   |lyrics   |discussion forums   |more tabs @ XGuitar.com

Blink_182 tabs

Obvious bass tab

Blink 182-Obvious

      come in at 0:05
G-----------------------------------------------------------------
D--6---6----------------------------------------------------------
A--4---4-----7-77-7----------------------------------------------- x4
E-----------------------------------------------------------------


G-----------------------------------------------------------------
D-----------------------------------------------------------------
A--4444444444444444--0000000000000000----------------------------- x2
E-----------------------------------------------------------------

G-----------------------------------------------------------------
D-----------------------------------------------------------------
A--------------------44-6666-------------------------------------- x2
E--0~----444-222-555----------------------------------------------

     come in at 0:42
G-----------------------------------------------------------------
D--6--6-----------------------------------------------------------
A--4--4-----7-77-7------------------------------------------------ x3
E-----------------------------------------------------------------


G-----------------------------------------------------------------
D-----------------------------------------------------------------
A--4444444444444444--0000000000000000----------------------------- x2
E-----------------------------------------------------------------

G-----------------------------------------------------------------
D-----------------------------------------------------------------
A--------------------44-6666-------------------------------------- x4
E--0~----444-222-555----------------------------------------------

    come in at 1:36
G-----------------------------------------------------------------
D-----------------------------------------------------------------
A--777--000--4444--888-7-888-------------------------------------- x4
E-----------------------------------------------------------------

G-----------------------------------------------------------------
D-----------------------------------------------------------------
A--7777777777777777--6666666666666666-----------play 1,3,5,7 time-
E-----------------------------------------------------------------

G-----------------------------------------------------------------
D-----------------------------------------------------------------
A--7777777777777777-00-22-66666666--44444444----play 2,4,6,8 time-
E-----------------------------------------------------------------

end on D--6-
       A--4-  (hold)              yeah.. thats it.. rate it?
  development and support by
dmitry ivanov