rock
 
|tablatures   |lyrics   |discussion forums   |more tabs @ XGuitar.com

Blink_182 tabs

My Pet Sally bass tab

Blink 182
My pet Sally
Buddha

Only one person tried to tab this and they were very wrong heres the right one!

Intro(after Drum Solo)
G:-----------------------------------| 
D:-----------------7----7------------| 
A:-000000-222222-55-5-55-5-----------| 
E:-----------------------------------| 

Verse (during singing): 

G:------------------------------------------------| 
D:------------------------------------------------| 
A:-00000000----22222222----55555555----22222222---| 
E:------------------------------------------------| 

Chorus: 

G:-------------------------------------| 
D:------------------------7----7-------| 
A:-000000----2222222----55-5-55-5------| 
E:-------------------------------------|
  development and support by
dmitry ivanov