rock
 
|tablatures   |lyrics   |discussion forums   |more tabs @ XGuitar.com

Blink_182 tabs

Mutt guitar tab

----------------------------------------------------------------------
                       MUTT - Blink 182
----------------------------------------------------------------------
-------------------------------------
www.estein.com/blink182
-------------------------------------

By: Justin(pnkrkr@hotmail.com

INTRO (the D string releases to open somewhere in there...i guessed 
here, close enough for you to figure it out though)
e|--------------------------------------------------------------------
B|------2--------2------2------2------2-------------------------------
G|----2--------2------2------2------2---------------------------------
D|--2--------2------2------0------0-----------------------------------
A|--------------------------------------------------------------------
E|--------------------------------------------------------------------

VERSE (option 1)quiet-repeated
e|--------------------------------------------------------------------
B|--------------------------------------------------------------------
G|--------------------------------------------------------------------
D|--7---7---7---------------------------------------------------------
A|--7---7---7---------------------------------------------------------
E|--5---5---5---------------------------------------------------------

VERSE (option 2)quiet
e|--------------------------------------------------------------------
B|--------------------------------------------------------------------
G|------------------7-------7-----------------------------------------
D|--7-------4-------7-------7-----------------------------------------
A|--7-------4-------5-------9-----------------------------------------
E|--5-------2---------------------------------------------------------

CHORUS quiet...pretty sure
e|--------------------------------------------------------------------
B|--------------------------------------------------------------------
G|-----------------7--------7-----------------------------------------
D|--7------4-------7--------7-----------------------------------------
A|--7------4-------5--------9-----------------------------------------
E|--5------2----------------------------------------------------------

OUTRO (palm mute)
e|--------------------------------------------------------------------
B|--------------------------------------------------------------------
G|--------4-----7-----------------------------------------------------
D|--7-----4-----7-----11----------------------------------------------
A|--7-----2-----5-----11----------------------------------------------
E|--5-----------------9-----------------------------------------------

if i messed up anywhere let me know i was kinda in a hurry making this, 
it sounds fine to me though...hopefully it's all right

======================================================================

  development and support by
dmitry ivanov