rock
 
|tablatures   |lyrics   |discussion forums   |more tabs @ XGuitar.com

Blink_182 tabs

Mother's Day guitar tab

Mark:    1,2,3,4!           


                     *this is DEFINITLEY a great song to sing to your very
                                special mommy on mothers' day*


Intro
    -----------------------------------------------------------------------------------
    -----------------------------------------------------------------------------------
    -----------------------------------------------------------------------------------
    ---2-x-2--x-222-x-2-2-x-222-x-2-x-2--22-x-5555--4--3-------------------------------
    ---2-x-2--x-222-x-2-2-x-222-x-2-x-2--22-x-5555--4--3-------------------------------
    ---0-x-0--x-000-x-0-0-x-000-x-0-x-0--00-x-3333--2--1-------------------------------

*repeat* 

verse
    -----------------------------------------------------------------------------------
    -----------------------------------------------------------------------------------
    -----------------------------------------------------------------------------------
    ---2-x-2--x-222-x-2-2-x-222-x-2-x-2--22-x-5555--4--3-------------------------------
    ---2-x-2--x-222-x-2-2-x-222-x-2-x-2--22-x-5555--4--3-------------------------------
    ---0-x-0--x-000-x-0-0-x-000-x-0-x-0--00-x-3333--2--1-------------------------------
fuckin and suckin and touchin 
fuckin and suckin and touchin 
fuckin and suckin and touchin 

*repeat*


chorus

    -0--00000--0---00000--0---00000--2---22222------------------------------------------
    -0--00000--0---00000--0---00000--3---33333------------------------------------------
    -0--00000--0---00000--0---00000--2---22222------------------------------------------
    -2--22222--2---22222--0---00000-----------------------------------------------------
    -0--00000--3---33333--2---22222-----------------------------------------------------
    ----------------------3---33333----------------------------------------------------- its mothers' day:.
its mothers' day:.
its mothers' day:.
its mothers' day:.

Repeat verse.


Now you repeat the chorus: this is the last part of the song: but you end special: look and see. 

    -0--00000--0---00000--0---00000--2---22222222--------------------------0--
    -0--00000--0---00000--0---00000--3---33333333(hold out for 5 seconds)--0--
    -0--00000--0---00000--0---00000--2---22222222--------------------------0--
    -2--22222--2---22222--0---00000----------------------------------------2--
    -0--00000--3---33333--2---22222----------------------------------------0-- 
    ----------------------3---33333-------------------------------------------

its mothers' day:.
its mothers' day:.
its mothers' day:.
its mothers' day:.(hold out the end of  "day"(ay) for 5 seconds)


                                    (fade out)

                song length: 1:25	 


My name is Cameron and I really love guitar. I'm in a band with my friend Eric.
  development and support by
dmitry ivanov