rock
 
|tablatures   |lyrics   |discussion forums   |more tabs @ XGuitar.com

Blink_182 tabs

Man Overboard bass tab

Band: blink 182
Song: Man Overboard
Album: The Mark, Tom, and Travis Show

Intro:(you will find this version easier to play)"so sorry,it's over"
G:--------------------------------------------------------------------
D:-------12---10---9----------12---10---9----------12---10---9--9--9--
A:-10-10---10---10---10-10-10---10---10---10-10-10---10----10-10-10-10
E:--------------------------------------------------------------------
"soon..."
G:-----
D:-----
A:-5~--
E:-----

Guitar switch part:
G:-----------------------------------------------------------
D:-----------------------------------------------------------
A:/10-10-10-10-10--5-5-5-5-5-5/7-7-7-7-7-7-7--3-3-3-3-3-3-3--
E:-----------------------------------------------------------

Verse:(also after intro)
G:-----------------------------------------------------------
D:-----------------------------------------------------------
A:----------------------------------------3-3-3-3-3-3-3-3-3--
E:-3-3-3-3-3-3-3-3-3-3-3-3--0-0-0-0-0-0-0--------------------

Riff 1("You can only lean on me for so long...)
G:---------------------------------------------------
D:---------------------------------------------------
A:---------------5-5-5-5-5-------------3-3-3-3-3-3-3-
E:-3-3-3-3-3-3-3-----------0-0-0-0-0-0---------------

Second "so sorry" part
G:-------------
D:-------------
A:-------------
E:--3~--5~--8~

Outro: play intro

TAB: Matt Nielsen zorg500@hotmail.com
  development and support by
dmitry ivanov