rock
 
|tablatures   |lyrics   |discussion forums   |more tabs @ XGuitar.com

Blink_182 tabs

M&M's bass tab

Song: M&M's
Band: Blink 182
Album: Cheshire Cat
Tabbed by: Adrian Harper (AdiHarp182@aol.com)

Intro & Verse

G:---------------------------------------------------------------
D:---------------------------------------------------------------
A:-7-7-7-7-7-7-7-7----------------4-4-4-4-4-4-4-4-0-0-0-0-0-0-0-0
E:----------------7-7-7-7-7-7-7-7--------------------------------

Chorus

G:---------------------------------------------------------------
D:---------------------------------------------------------------
A:-------------------------2-2-2-2-------------------------------
E:-2-2-2-2-5-5-5-5-0-0-0-0---------------------------------------

Bridge

G:---------------------------------------------------------------
D:---------------------------------------------------------------
A:-7~--4~-0~-----------------------------------------------------
E:---7~----------------------------------------------------------

~ = Let note ring

Song Structure

Drum Solo
Intro x3
Verse x4
Chorus x4
Verse x4
Verse x4
Chorus x4
Bridge x2
Verse x2
Verse x4
End on Open E

  development and support by
dmitry ivanov