rock
 
|tablatures   |lyrics   |discussion forums   |more tabs @ XGuitar.com

Blink_182 tabs

Lemmings guitar tab

----------------------------------------------------------------------------
                   LEMMINGS - Blink 182
----------------------------------------------------------------------------

By: Jason (CIV96@aol.com)

Fig. 1 - gtr. 1               Fill 1 - gtr. 1
------------|------------|    ---------------|---------------|
------------|------------|    ---------------|---------------|
------------|------------|    ---------------|-9-9--9--9-9-9-|
-----4---1--|-----2---1--|    -2-2--2-2-2--2-|-9-9--9--9-9-9-|
-2----------|-2----------|    -2-2--2-2-2--2-|-7-7--7--7-7-7-|
------------|------------|    -0-0--0-0-0--0-|---------------|

Fig. 2 - both gtrs.
---------------|---------------|---------------|---------------|
---------------|---------------|---------------|---------------|
-4-4-----------|-4-4-----------|---------------|---------------|
-4-4--2--2-2-2-|-4-4--6--6-6-6-|-4-4--6--6-6-6-|-2-2--2-2-2--2-|
-2-2--2--2-2-2-|-2-2--6--6-6-6-|-4-4--6--6-6-6-|-2-2--2-2-2--2-|
------0--0-0-0-|------4--4-4-4-|-2-2--4--4-4-4-|-0-0--0-0-0--0-|

Fig. 3a - gtr. 1
---------------|---------------|---------------|---------------|
---------------|---------------|---------------|---------------|
---------------|---------------|---------------|---------------|
-4-4--4-4-4--4-|-6-6--6-6-6--6-|-2-2--2-2-2--2-|-2-2--2-2-2--2-|
-4-4--4-4-4--4-|-6-6--6-6-6--6-|-2-2--2-2-2--2-|-2-2--2-2-2--2-|
-2-2--2-2-2--2-|-4-4--4-4-4--4-|-0-0--0-0-0--0-|-0-0--0-0-0--0-|

Fig. 3b - gtr. 2
---------------|---------------|---------------|---------------|
------4-----5--|------4-----5--|------4-----5--|---------------|
-4-------------|-4-------------|-4-------------|-4-------------|
---------------|---------------|---------------|---------------|
---------------|---------------|---------------|---------------|
---------------|---------------|---------------|---------------|

Fig. 4 - gtr. 2
-------------------|----------------|------------------|
-------------------|----------------|-----------5---4--|
*-4-----3-----4---*|-4-----3---4----|-------------4----|
*---4-4---4-4---4-*|---4-4---4----2-|-(2)-2-2-2--------|
-------------------|--------------2-|-(2)-2-2-2--------|
-------------------|--------------0-|-(0)-0-0-0--------|
   pm..   ...   .      ...   .            .....   .

Fig. 5 - gtr. 1
---------------|---------------|---------------|---------------|
---------------|---------------|---------------|---------------|
-4-4--4--4-4-4-|-6-6--6--6-6-6-|---------------|-9-9--9--9-9-9-|
-4-4--4--4-4-4-|-6-6--6--6-6-6-|-6-6--6--6-6-6-|-9-9--9--9-9-9-|
-2-2--2--2-2-2-|-4-4--4--4-4-4-|-6-6--6--6-6-6-|-7-7--7--7-7-7-|
---------------|---------------|-4-4--4--4-4-4-|---------------|

Fig. 6 - gtr. 1
---------------|---------------|---------------|---------------|
---------------|---------------|---------------|---------------|
-4-4--4--4-4-4-|-6-6--6--6-6-6-|---------------|-9-9--9--9-9-9-|
---------------|---------------|-6-6--6--6-6-6-|---------------|
-2-2--2--2-2-2-|-4-4--4--4-4-4-|---------------|-7-7--7--7-7-7-|
---------------|---------------|-4-4--4--4-4-4-|---------------|

Fill 2 - both gtrs. Fig. 1                Fig. 1, 3x, then Fill 1
---------------------|   Fig. 2, 2x            Fig. 1, 3x, then Fill 1
----------------^----|   Fig. 1, 3x, then Fill 1    Fig. 3a & 3b, 2x
-4---4---4------4----|   Fig. 1, 3x, then Fill 1    Fig. 4, 2x
-4---4---4------4----|   Fig. 3a & 3b, 2x      Fig. 5, 2x
-2---2---2------2----|   Fig. 2, 2x            Fig. 6, 2x
---------------------|   Fig. 1, 3x, then Fill 1    Fig. 6 & 3b, 2x
               Fig. 1, 3x, then Fill 1    Fill 2
               Fig. 3a & 3b, 2x         

============================================================================

  development and support by
dmitry ivanov