rock
 
|tablatures   |lyrics   |discussion forums   |more tabs @ XGuitar.com

Blink_182 tabs

Just About Done bass tab

blink 182 "just about done"

riff 1
g---------------------------------------------
d---------------------------------------------
a---------2-----------------------------------
e-0--2--3---3--2------------------------------

riff 2
g---------------------------------------------
d---------------------------------------------
a---3-2-1---3-2-1---3-2-1---3-2-1-------------
e-5-------5-------5-------5-------------------

riff 3
g---------------------------------------------
d---------------------------------------------
a---------------------------------------------
e-0000000000000000000000000000000000000000000-


by brettromero
  development and support by
dmitry ivanov