rock
 
|tablatures   |lyrics   |discussion forums   |more tabs @ XGuitar.com

Blink_182 tabs

Im Lost Without You guitar tab

VERSE

Piano Part [GUITAR 1]

[E----------]
[A----------]   X10
[D---7---6--]
[G--9---9---]
[B----------]
[E----------]

On The 6th Time [Guitar 2] Comes In
This Is Played Very Quietly Or Even Palm Muted

[E-77777777--66666666--4444444--2222222--]
[A-77777777--66666666--4444444--2222222--]   X2
[D-55555555--44444444--2222222--0000000--]
[G---------------------------------------]
[B---------------------------------------]
[E---------------------------------------]

CHORUS

[Guitar 1]

E[-----5-----5-------5-------5-------5-------5-------5-------5--]
B[-----5-----5-------5-------5-------5-------5-------5-------5--]  x2
G[--------------------------------------------------------------]
D[--7-7---7-7-----6-6-----6-6-----4-4-----4-4-----6-6-----6-6---]
A[--------------------------------------------------------------]
E[--------------------------------------------------------------]

[Guitar 2]

This Is Played Louder In the Chorus

[E-77777777--66666666--4444444--2222222--]
[A-77777777--66666666--4444444--2222222--]   X2
[D-55555555--44444444--2222222--0000000--]
[G---------------------------------------]
[B---------------------------------------]
[E---------------------------------------]

VERSE

[Guitar 1]

[E----------]
[A----------]   X8
[D---7---6--]
[G--9---9---]
[B----------]
[E----------]

[Guitar 2]

This Is Played A Tiny Bit Quieter Than The Chorus

[E-77777777--66666666--4444444--2222222--]
[A-77777777--66666666--4444444--2222222--]   X4
[D-55555555--44444444--2222222--0000000--]
[G---------------------------------------]
[B---------------------------------------]
[E---------------------------------------]

CHORUS
[Guitar 1]

E[-----5-----5-------5-------5-------5-------5-------5-------5--]
B[-----5-----5-------5-------5-------5-------5-------5-------5--]  x2
G[--------------------------------------------------------------]
D[--7-7---7-7-----6-6-----6-6-----4-4-----4-4-----6-6-----6-6---]
A[--------------------------------------------------------------]
E[--------------------------------------------------------------]

[Guitar 2]

This Is Played Louder In the Chorus

[E-77777777--66666666--4444444--2222222--]
[A-77777777--66666666--4444444--2222222--]   X2
[D-55555555--44444444--2222222--0000000--]
[G---------------------------------------]
[B---------------------------------------]
[E---------------------------------------]

Bridge/Solo/Interlude

[Guitar 1]

[E--------------------------------------------]
[A--------------------------------------------]  X4
[D--------------------------------------------]
[G-----9----9----9----9-----9----9----9----9--]
[B--10---10---10---10----12---12---12---12----]
[E--------------------------------------------]

[Guitar 2]
[E-77777777--66666666--4444444--2222222--]
[A-77777777--66666666--4444444--2222222--]   X2
[D-55555555--44444444--2222222--0000000--]
[G---------------------------------------]
[B---------------------------------------]
[E---------------------------------------]

[Guitar 1]
[E----------]
[A----------]  x4
[D---7---6--]
[G--9---9---]
[B----------]
[E----------]

CHORUS
[Guitar 1]

E[-----5-----5-------5-------5-------5-------5-------5-------5--]
B[-----5-----5-------5-------5-------5-------5-------5-------5--]  x8
G[--------------------------------------------------------------]
D[--7-7---7-7-----6-6-----6-6-----4-4-----4-4-----6-6-----6-6---]
A[--------------------------------------------------------------]
E[--------------------------------------------------------------]

[Guitar 2]

This Is Played Louder In the Chorus

[E-77777777--66666666--4444444--2222222--]
[A-77777777--66666666--4444444--2222222--]   X8
[D-55555555--44444444--2222222--0000000--]
[G---------------------------------------]
[B---------------------------------------]
[E---------------------------------------]

OUTRO

[Guitar 1]


[E----------]
[A----------]   X2
[D---7---6--]
[G--9---9---]
[B----------]
[E----------]
  development and support by
dmitry ivanov