rock
 
|tablatures   |lyrics   |discussion forums   |more tabs @ XGuitar.com

Blink_182 tabs

Im Kicking guitar tab

intro           
e--------------------------------------------------
B--------------------------------------------------
G--------------------------------------------------
D-------9---7--------------9---7-------------------  
A---7------------------7---------------------------
E--------------------------------------------------

2nd guitar inro
e--------------------------------------------------
B--------------------------------------------------
G------------------------7777----------------------
D---77777777----4444-----7777----------------------
A---77777777----4444-----5555----------------------
E---55555555----2222-------------------------------
               
verse(s)
e--------------------------------------------------
B--------------------------------------------------
G--------------------9999-----7777-----------------
D--7777-----4444-----9999-----7777-----------------
A--7777-----4444-----7777-----5555-----------------
E--5555-----2222-----------------------------------

chorus
e ------------------------------------------------------------
B ------------------------------------------------------------
G ------------------------99999---77777------------------77777
D 77777---66666---44444---99999---77777---77777---44444--77777
A 77777---77777---44444---77777---55555---77777---44444--55555
E 55555---44444---22222-------------------55555---22222-------

Interlude dealy

e-----0----|---------|-----0----|---------|
B----------|-----2---|----------|-----2---|
G---2---2--|--2----2-|---2---2--|--2----2-|
D----------|---------|----------|---------|
A----------|---------|----------|---------|
E-2--------|2--------|-2--------|2--------|


e-----0----|---------|-----0----|---------|
B----------|-----2---|----------|-----2---|
G---2---2--|---2---2-|---2---2--|---2---2-|
D-0--------|-0-------|-0--------|-0-------|
A----------|---------|----------|---------|
E----------|---------|----------|---------|

e----0-----|---------|----0-----|---------|
B----------|-----2---|----------|-----2---|
G--2---2---|---2---2-|--2---2---|---2---2-|
D----------|---------|----------|---------|
A-0--------|-0-------|-2--------|--2------|
E----------|---------|----------|---------|

e------------------------------------
B------2-----2----2------2--2222-----
G---2-----2-----2-----2-----2222-----
D-0-----0-----0-----0-------0000-----
A------------------------------------
E------------------------------------

during clarinet solo
e---------------------------|----------------
B---------------------------|----------------
G----------7777-------------|--9999---7777---
D--4444----7777--7777-------|--9999---7777---
A--4444----5555--7777---X2--|--7777---5555---
E--2222----------5555-------|----------------
 
 
Any questions, corrections?

My email Johnolomew@hotmail.com
if you want to talk.
  development and support by
dmitry ivanov