rock
 
|tablatures   |lyrics   |discussion forums   |more tabs @ XGuitar.com

Blink_182 tabs

I Wont Be Home For Christmas guitar tab

Intro Riff
e|--------------------------------------------------------------------|
B|--------------------------------------------------------------------|
G|---------------4--5--4------4-------------4-------5 0 4 ------------|
D|-------5 5 5---5--5--5------5------5------5-------5---7-----7--5----| 
A|---------------------------7----------------7---------------5 5-----|
E|--------------------------------------------------------------------|

e|--------------------------------------------------------------------|
B|--------------------------------------------------------------------|
G|-----------4--------4-----------------------------------------------|
D|-----5-7---5--5-7---5-----(REPEAT)----------------------------------|
A|--------------------------------------------------------------------|
E|--------------------------------------------------------------------|

   Verse  (2x)
e|--------------------------------------------------------------------|
B|--------------------------------------------------------------------|
G|--------------------------------------7-7-7-7-7-7-7-7---------------|
D|---5-5-5-5-5---2-2-2-2-2---5-5-5-5-5--7-7-7-7-7-7-7-7-----(2x)------|
A|---5-5-5-5-5---2-2-2-2-2---3-3-3-3-3--5-5-5-5-5-5-5-5---------------|
E|---3-3-3-3-3---0-0-0-0-0--------------------------------------------|

   Chorus (It's Christmas time...)
e|--------------------------------------------------------------------|
B|--------------------------------------------------------------------|
G|--------7-7-------5-5-5-5-----------7--------7-7-------5-5-5-5--0---|
D|---5-5--7-7--2-2--5-5-5-5--(slide)--7----5-5-7-7--2-2--5-5-5-5--0---|
A|---5-5--5-5--2-2--3-3-3-3-----------5----5-5-5-5--2-2--3 3-3-3--0---|
E|---3-3-------0-0-------------------------3-3------0-0---------------|

e|--------------------------------------------------------------------|
B|--------------------------------------------------------------------|
G|---------7-7-7--------5-5-5--7----------7-7-7---------5-5-5-5--7-7-7|
D|---5-5-5-7-7-7--2-2-2-5-5-5--7----5-5-5-7-7-7-2-2-2-2-5-5-5-5--7-7-7|
A|---5-5-5-5-5-5--2-2-2-3-3-3--5----5-5-5-5-5-5-2-2-2-2-3-3-3-3--5-5-5|
E|---3-3-3--------0-0-0-------------3-3-3-------0-0-0-0---------------|

   The End Part  
e|--------------------------------------------------------------------|
B|--------------------------------------------------------------------|
G|------------7-7-7-7----------5-5-5-5--------------------------------|
D|---5-5-5-5--7-7-7-7--2-2-2-2-5-5-5-5---(repeat 6 or 7 times)--------|
A|---5-5-5-5--5-5-5-5--2-2-2-2-3-3-3-3--------------------------------|
E|---3-3-3-3-----------0-0-0-0----------------------------------------|

=======================================================================
  development and support by
dmitry ivanov